  0
SECTION
  2
HEADER
  9
$ACADVER
  1
AC1024
  9
$ACADMAINTVER
 70
     6
  9
$DWGCODEPAGE
  3
ANSI_1252
  9
$INSBASE
 10
0.0
 20
0.0
 30
0.0
  9
$EXTMIN
 10
1.000000000000000E+20
 20
1.000000000000000E+20
 30
1.000000000000000E+20
  9
$EXTMAX
 10
-1.000000000000000E+20
 20
-1.000000000000000E+20
 30
-1.000000000000000E+20
  9
$LIMMIN
 10
0.0
 20
0.0
  9
$LIMMAX
 10
12.0
 20
9.0
  9
$ORTHOMODE
 70
     0
  9
$REGENMODE
 70
     1
  9
$FILLMODE
 70
     1
  9
$QTEXTMODE
 70
     0
  9
$MIRRTEXT
 70
     1
  9
$LTSCALE
 40
1.0
  9
$ATTMODE
 70
     1
  9
$TEXTSIZE
 40
0.2
  9
$TRACEWID
 40
0.05
  9
$TEXTSTYLE
  7
Standard
  9
$CLAYER
  8
0
  9
$CELTYPE
  6
ByLayer
  9
$CECOLOR
 62
   256
  9
$CELTSCALE
 40
1.0
  9
$DISPSILH
 70
     0
  9
$DIMSCALE
 40
1.0
  9
$DIMASZ
 40
0.18
  9
$DIMEXO
 40
0.0625
  9
$DIMDLI
 40
0.38
  9
$DIMRND
 40
0.0
  9
$DIMDLE
 40
0.0
  9
$DIMEXE
 40
0.18
  9
$DIMTP
 40
0.0
  9
$DIMTM
 40
0.0
  9
$DIMTXT
 40
0.18
  9
$DIMCEN
 40
0.09
  9
$DIMTSZ
 40
0.0
  9
$DIMTOL
 70
     0
  9
$DIMLIM
 70
     0
  9
$DIMTIH
 70
     1
  9
$DIMTOH
 70
     1
  9
$DIMSE1
 70
     0
  9
$DIMSE2
 70
     0
  9
$DIMTAD
 70
     0
  9
$DIMZIN
 70
     0
  9
$DIMBLK
  1

  9
$DIMASO
 70
     1
  9
$DIMSHO
 70
     1
  9
$DIMPOST
  1

  9
$DIMAPOST
  1

  9
$DIMALT
 70
     0
  9
$DIMALTD
 70
     2
  9
$DIMALTF
 40
25.4
  9
$DIMLFAC
 40
1.0
  9
$DIMTOFL
 70
     0
  9
$DIMTVP
 40
0.0
  9
$DIMTIX
 70
     0
  9
$DIMSOXD
 70
     0
  9
$DIMSAH
 70
     0
  9
$DIMBLK1
  1

  9
$DIMBLK2
  1

  9
$DIMSTYLE
  2
Standard
  9
$DIMCLRD
 70
     0
  9
$DIMCLRE
 70
     0
  9
$DIMCLRT
 70
     0
  9
$DIMTFAC
 40
1.0
  9
$DIMGAP
 40
0.09
  9
$DIMJUST
 70
     0
  9
$DIMSD1
 70
     0
  9
$DIMSD2
 70
     0
  9
$DIMTOLJ
 70
     1
  9
$DIMTZIN
 70
     0
  9
$DIMALTZ
 70
     0
  9
$DIMALTTZ
 70
     0
  9
$DIMUPT
 70
     0
  9
$DIMDEC
 70
     4
  9
$DIMTDEC
 70
     4
  9
$DIMALTU
 70
     2
  9
$DIMALTTD
 70
     2
  9
$DIMTXSTY
  7
Standard
  9
$DIMAUNIT
 70
     0
  9
$DIMADEC
 70
     0
  9
$DIMALTRND
 40
0.0
  9
$DIMAZIN
 70
     0
  9
$DIMDSEP
 70
    46
  9
$DIMATFIT
 70
     3
  9
$DIMFRAC
 70
     0
  9
$DIMLDRBLK
  1

  9
$DIMLUNIT
 70
     2
  9
$DIMLWD
 70
    -2
  9
$DIMLWE
 70
    -2
  9
$DIMTMOVE
 70
     0
  9
$DIMFXL
 40
1.0
  9
$DIMFXLON
 70
     0
  9
$DIMJOGANG
 40
0.7853981633974483
  9
$DIMTFILL
 70
     0
  9
$DIMTFILLCLR
 70
     0
  9
$DIMARCSYM
 70
     0
  9
$DIMLTYPE
  6

  9
$DIMLTEX1
  6

  9
$DIMLTEX2
  6

  9
$DIMTXTDIRECTION
 70
     0
  9
$LUNITS
 70
     2
  9
$LUPREC
 70
     4
  9
$SKETCHINC
 40
0.1
  9
$FILLETRAD
 40
0.5
  9
$AUNITS
 70
     0
  9
$AUPREC
 70
     0
  9
$MENU
  1
.
  9
$ELEVATION
 40
0.0
  9
$PELEVATION
 40
0.0
  9
$THICKNESS
 40
0.0
  9
$LIMCHECK
 70
     0
  9
$CHAMFERA
 40
0.5
  9
$CHAMFERB
 40
0.5
  9
$CHAMFERC
 40
1.0
  9
$CHAMFERD
 40
0.0
  9
$SKPOLY
 70
     0
  9
$TDCREATE
 40
2458491.426529097
  9
$TDUCREATE
 40
2458491.63486243
  9
$TDUPDATE
 40
2458491.426529236
  9
$TDUUPDATE
 40
2458491.63486257
  9
$TDINDWG
 40
0.0000000116
  9
$TDUSRTIMER
 40
0.0000000116
  9
$USRTIMER
 70
     1
  9
$ANGBASE
 50
0.0
  9
$ANGDIR
 70
     0
  9
$PDMODE
 70
     0
  9
$PDSIZE
 40
0.0
  9
$PLINEWID
 40
0.0
  9
$SPLFRAME
 70
     0
  9
$SPLINETYPE
 70
     6
  9
$SPLINESEGS
 70
     8
  9
$HANDSEED
  5
64
  9
$SURFTAB1
 70
     6
  9
$SURFTAB2
 70
     6
  9
$SURFTYPE
 70
     6
  9
$SURFU
 70
     6
  9
$SURFV
 70
     6
  9
$UCSBASE
  2

  9
$UCSNAME
  2

  9
$UCSORG
 10
0.0
 20
0.0
 30
0.0
  9
$UCSXDIR
 10
1.0
 20
0.0
 30
0.0
  9
$UCSYDIR
 10
0.0
 20
1.0
 30
0.0
  9
$UCSORTHOREF
  2

  9
$UCSORTHOVIEW
 70
     0
  9
$UCSORGTOP
 10
0.0
 20
0.0
 30
0.0
  9
$UCSORGBOTTOM
 10
0.0
 20
0.0
 30
0.0
  9
$UCSORGLEFT
 10
0.0
 20
0.0
 30
0.0
  9
$UCSORGRIGHT
 10
0.0
 20
0.0
 30
0.0
  9
$UCSORGFRONT
 10
0.0
 20
0.0
 30
0.0
  9
$UCSORGBACK
 10
0.0
 20
0.0
 30
0.0
  9
$PUCSBASE
  2

  9
$PUCSNAME
  2

  9
$PUCSORG
 10
0.0
 20
0.0
 30
0.0
  9
$PUCSXDIR
 10
1.0
 20
0.0
 30
0.0
  9
$PUCSYDIR
 10
0.0
 20
1.0
 30
0.0
  9
$PUCSORTHOREF
  2

  9
$PUCSORTHOVIEW
 70
     0
  9
$PUCSORGTOP
 10
0.0
 20
0.0
 30
0.0
  9
$PUCSORGBOTTOM
 10
0.0
 20
0.0
 30
0.0
  9
$PUCSORGLEFT
 10
0.0
 20
0.0
 30
0.0
  9
$PUCSORGRIGHT
 10
0.0
 20
0.0
 30
0.0
  9
$PUCSORGFRONT
 10
0.0
 20
0.0
 30
0.0
  9
$PUCSORGBACK
 10
0.0
 20
0.0
 30
0.0
  9
$USERI1
 70
     0
  9
$USERI2
 70
     0
  9
$USERI3
 70
     0
  9
$USERI4
 70
     0
  9
$USERI5
 70
     0
  9
$USERR1
 40
0.0
  9
$USERR2
 40
0.0
  9
$USERR3
 40
0.0
  9
$USERR4
 40
0.0
  9
$USERR5
 40
0.0
  9
$WORLDVIEW
 70
     1
  9
$SHADEDGE
 70
     3
  9
$SHADEDIF
 70
    70
  9
$TILEMODE
 70
     1
  9
$MAXACTVP
 70
    64
  9
$PINSBASE
 10
0.0
 20
0.0
 30
0.0
  9
$PLIMCHECK
 70
     0
  9
$PEXTMIN
 10
1.000000000000000E+20
 20
1.000000000000000E+20
 30
1.000000000000000E+20
  9
$PEXTMAX
 10
-1.000000000000000E+20
 20
-1.000000000000000E+20
 30
-1.000000000000000E+20
  9
$PLIMMIN
 10
0.0
 20
0.0
  9
$PLIMMAX
 10
12.0
 20
9.0
  9
$UNITMODE
 70
     0
  9
$VISRETAIN
 70
     1
  9
$PLINEGEN
 70
     0
  9
$PSLTSCALE
 70
     1
  9
$TREEDEPTH
 70
  3020
  9
$CMLSTYLE
  2
Standard
  9
$CMLJUST
 70
     0
  9
$CMLSCALE
 40
1.0
  9
$PROXYGRAPHICS
 70
     1
  9
$MEASUREMENT
 70
     0
  9
$CELWEIGHT
370
    -1
  9
$ENDCAPS
280
     0
  9
$JOINSTYLE
280
     0
  9
$LWDISPLAY
290
     1
  9
$INSUNITS
 70
     1
  9
$HYPERLINKBASE
  1

  9
$STYLESHEET
  1

  9
$XEDIT
290
     1
  9
$CEPSNTYPE
380
     0
  9
$PSTYLEMODE
290
     1
  9
$FINGERPRINTGUID
  2
{466C1035-FCA2-4F19-B3D3-B63096E29CF4}
  9
$VERSIONGUID
  2
{FAEB1C32-E019-11D5-929B-00C0DF256EC4}
  9
$EXTNAMES
290
     1
  9
$PSVPSCALE
 40
0.0
  9
$OLESTARTUP
290
     0
  9
$SORTENTS
280
   127
  9
$INDEXCTL
280
     0
  9
$HIDETEXT
280
     1
  9
$XCLIPFRAME
280
     2
  9
$HALOGAP
280
     0
  9
$OBSCOLOR
 70
   257
  9
$OBSLTYPE
280
     0
  9
$INTERSECTIONDISPLAY
280
     0
  9
$INTERSECTIONCOLOR
 70
   257
  9
$DIMASSOC
280
     2
  9
$PROJECTNAME
  1

  9
$CAMERADISPLAY
290
     0
  9
$LENSLENGTH
 40
50.0
  9
$CAMERAHEIGHT
 40
0.0
  9
$STEPSPERSEC
 40
2.0
  9
$STEPSIZE
 40
6.0
  9
$3DDWFPREC
 40
2.0
  9
$PSOLWIDTH
 40
0.25
  9
$PSOLHEIGHT
 40
4.0
  9
$LOFTANG1
 40
1.570796326794897
  9
$LOFTANG2
 40
1.570796326794897
  9
$LOFTMAG1
 40
0.0
  9
$LOFTMAG2
 40
0.0
  9
$LOFTPARAM
 70
     7
  9
$LOFTNORMALS
280
     1
  9
$LATITUDE
 40
37.795
  9
$LONGITUDE
 40
-122.394
  9
$NORTHDIRECTION
 40
0.0
  9
$TIMEZONE
 70
 -8000
  9
$LIGHTGLYPHDISPLAY
280
     1
  9
$TILEMODELIGHTSYNCH
280
     1
  9
$CMATERIAL
347
3C
  9
$SOLIDHIST
280
     1
  9
$SHOWHIST
280
     1
  9
$DWFFRAME
280
     2
  9
$DGNFRAME
280
     2
  9
$REALWORLDSCALE
290
     1
  9
$INTERFERECOLOR
 62
   256
  9
$CSHADOW
280
     0
  9
$SHADOWPLANELOCATION
 40
0.0
  0
ENDSEC
  0
SECTION
  2
CLASSES
  0
CLASS
  1
ACDBDICTIONARYWDFLT
  2
AcDbDictionaryWithDefault
  3
ObjectDBX Classes
 90
        0
 91
        4
280
     0
281
     0
  0
CLASS
  1
VISUALSTYLE
  2
AcDbVisualStyle
  3
ObjectDBX Classes
 90
     4095
 91
        4
280
     0
281
     0
  0
CLASS
  1
MATERIAL
  2
AcDbMaterial
  3
ObjectDBX Classes
 90
     1153
 91
        4
280
     0
281
     0
  0
CLASS
  1
SUN
  2
AcDbSun
  3
SCENEOE
 90
     1024
 91
        4
280
     0
281
     0
  0
ENDSEC
  0
SECTION
  2
TABLES
  0
TABLE
  2
VPORT
  5
8
330
0
100
AcDbSymbolTable
 70
     1
  0
VPORT
  5
29
330
8
100
AcDbSymbolTableRecord
100
AcDbViewportTableRecord
  2
*Active
 70
     0
 10
0.0
 20
0.0
 11
1.0
 21
1.0
 12
0.0
 22
0.0
 13
0.0
 23
0.0
 14
0.5
 24
0.5
 15
0.5
 25
0.5
 16
0.0
 26
0.0
 36
1.0
 17
5.493295019157086
 27
-4.256226053639844
 37
0.0
 40
1.206896551724134
 41
5.7857142857143
 42
50.0
 43
0.0
 44
0.0
 50
0.0
 51
0.0
 71
     0
 72
   100
 73
     1
 74
     3
 75
     0
 76
     0
 77
     0
 78
     0
281
     0
 65
     1
110
0.0
120
0.0
130
0.0
111
1.0
121
0.0
131
0.0
112
0.0
122
1.0
132
0.0
 79
     0
146
0.0
 60
     3
 61
     5
292
     1
282
     1
141
0.0
142
0.0
 63
   250
361
3F
  0
ENDTAB
  0
TABLE
  2
LTYPE
  5
5
330
0
100
AcDbSymbolTable
 70
     1
  0
LTYPE
  5
14
330
5
100
AcDbSymbolTableRecord
100
AcDbLinetypeTableRecord
  2
ByBlock
 70
     0
  3

 72
    65
 73
     0
 40
0.0
  0
LTYPE
  5
15
330
5
100
AcDbSymbolTableRecord
100
AcDbLinetypeTableRecord
  2
ByLayer
 70
     0
  3

 72
    65
 73
     0
 40
0.0
  0
LTYPE
  5
16
330
5
100
AcDbSymbolTableRecord
100
AcDbLinetypeTableRecord
  2
Continuous
 70
     0
  3
Solid line
 72
    65
 73
     0
 40
0.0
  0
ENDTAB
  0
TABLE
  2
LAYER
  5
2
330
0
100
AcDbSymbolTable
 70
     2
  0
LAYER
  5
10
330
2
100
AcDbSymbolTableRecord
100
AcDbLayerTableRecord
  2
0
 70
     0
 62
     7
  6
Continuous
370
    -3
390
F
347
3E
  0
LAYER
  5
40
330
2
100
AcDbSymbolTableRecord
100
AcDbLayerTableRecord
  2
Layer 1
 70
     0
 62
     7
  6
Continuous
370
    -3
390
F
347
3E
  0
ENDTAB
  0
TABLE
  2
STYLE
  5
3
330
0
100
AcDbSymbolTable
 70
     1
  0
STYLE
  5
11
330
3
100
AcDbSymbolTableRecord
100
AcDbTextStyleTableRecord
  2
Standard
 70
     0
 40
0.0
 41
1.0
 50
0.0
 71
     0
 42
0.2
  3
txt
  4

  0
ENDTAB
  0
TABLE
  2
VIEW
  5
6
330
0
100
AcDbSymbolTable
 70
     0
  0
ENDTAB
  0
TABLE
  2
UCS
  5
7
330
0
100
AcDbSymbolTable
 70
     0
  0
ENDTAB
  0
TABLE
  2
APPID
  5
9
330
0
100
AcDbSymbolTable
 70
     1
  0
APPID
  5
12
330
9
100
AcDbSymbolTableRecord
100
AcDbRegAppTableRecord
  2
ACAD
 70
     0
  0
ENDTAB
  0
TABLE
  2
DIMSTYLE
  5
A
330
0
100
AcDbSymbolTable
 70
     1
100
AcDbDimStyleTable
  0
DIMSTYLE
105
27
330
A
100
AcDbSymbolTableRecord
100
AcDbDimStyleTableRecord
  2
Standard
 70
     0
178
     0
340
11
  0
ENDTAB
  0
TABLE
  2
BLOCK_RECORD
  5
1
330
0
100
AcDbSymbolTable
 70
     6
  0
BLOCK_RECORD
  5
1F
330
1
100
AcDbSymbolTableRecord
100
AcDbBlockTableRecord
  2
*Model_Space
340
22
 70
     0
280
     1
281
     0
  0
BLOCK_RECORD
  5
1B
330
1
100
AcDbSymbolTableRecord
100
AcDbBlockTableRecord
  2
*Paper_Space
340
1E
 70
     0
280
     1
281
     0
  0
BLOCK_RECORD
  5
23
330
1
100
AcDbSymbolTableRecord
100
AcDbBlockTableRecord
  2
*Paper_Space0
340
26
 70
     0
280
     1
281
     0
  0
BLOCK_RECORD
  5
41
330
1
100
AcDbSymbolTableRecord
100
AcDbBlockTableRecord
  2
block 2
340
0
102
{BLKREFS
331
42
102
}
 70
     0
280
     1
281
     0
  0
BLOCK_RECORD
  5
47
330
1
100
AcDbSymbolTableRecord
100
AcDbBlockTableRecord
  2
block 3
340
0
102
{BLKREFS
331
48
102
}
 70
     0
280
     1
281
     0
  0
BLOCK_RECORD
  5
4E
330
1
100
AcDbSymbolTableRecord
100
AcDbBlockTableRecord
  2
block 4
340
0
102
{BLKREFS
331
4F
102
}
 70
     0
280
     1
281
     0
  0
BLOCK_RECORD
  5
54
330
1
100
AcDbSymbolTableRecord
100
AcDbBlockTableRecord
  2
block 5
340
0
102
{BLKREFS
331
55
102
}
 70
     0
280
     1
281
     0
  0
BLOCK_RECORD
  5
5B
330
1
100
AcDbSymbolTableRecord
100
AcDbBlockTableRecord
  2
block 6
340
0
102
{BLKREFS
331
5C
102
}
 70
     0
280
     1
281
     0
  0
ENDTAB
  0
ENDSEC
  0
SECTION
  2
BLOCKS
  0
BLOCK
  5
20
330
1F
100
AcDbEntity
  8
0
100
AcDbBlockBegin
  2
*Model_Space
 70
     0
 10
0.0
 20
0.0
 30
0.0
  3
*Model_Space
  1

  0
ENDBLK
  5
21
330
1F
100
AcDbEntity
  8
0
100
AcDbBlockEnd
  0
BLOCK
  5
1C
330
1B
100
AcDbEntity
 67
     1
  8
0
100
AcDbBlockBegin
  2
*Paper_Space
 70
     0
 10
0.0
 20
0.0
 30
0.0
  3
*Paper_Space
  1

  0
ENDBLK
  5
1D
330
1B
100
AcDbEntity
 67
     1
  8
0
100
AcDbBlockEnd
  0
BLOCK
  5
24
330
23
100
AcDbEntity
  8
0
100
AcDbBlockBegin
  2
*Paper_Space0
 70
     0
 10
0.0
 20
0.0
 30
0.0
  3
*Paper_Space0
  1

  0
ENDBLK
  5
25
330
23
100
AcDbEntity
  8
0
100
AcDbBlockEnd
  0
BLOCK
  5
43
330
41
100
AcDbEntity
  8
0
100
AcDbBlockBegin
  2
block 2
 70
     0
 10
0.0
 20
0.0
 30
0.0
  3
block 2
  1

  0
SPLINE
  5
45
330
41
100
AcDbEntity
  8
Layer 1
370
     0
100
AcDbSpline
210
0.0
220
0.0
230
1.0
 70
    11
 71
     3
 72
    35
 73
    31
 74
     0
 42
0.0000000001
 43
0.0000000001
 12
1.0
 22
0.0
 32
0.0
 13
1.0
 23
0.0
 33
0.0
 40
0.0
 40
0.0
 40
0.0
 40
0.0
 40
1.0
 40
1.0
 40
1.0
 40
2.0
 40
2.0
 40
2.0
 40
3.0
 40
3.0
 40
3.0
 40
4.0
 40
4.0
 40
4.0
 40
5.0
 40
5.0
 40
5.0
 40
6.0
 40
6.0
 40
6.0
 40
7.0
 40
7.0
 40
7.0
 40
8.0
 40
8.0
 40
8.0
 40
9.0
 40
9.0
 40
9.0
 40
10.0
 40
10.0
 40
10.0
 40
10.0
 10
7.480319552951388
 20
-4.719245572057035
 30
0.0
 10
7.269816080729166
 20
-4.719245572057035
 30
0.0
 10
7.177300347222221
 20
-4.469042121536202
 30
0.0
 10
7.087822808159721
 20
-4.227071635425091
 30
0.0
 10
7.013237847222221
 20
-4.025357225702868
 30
0.0
 10
6.936102973090278
 20
-3.816779751744535
 30
0.0
 10
6.812893337673611
 20
-3.816779751744535
 30
0.0
 10
6.689710828993055
 20
-3.816779751744535
 30
0.0
 10
6.612589518229166
 20
-4.025357225702868
 30
0.0
 10
6.538004557291666
 20
-4.227058072057035
 30
0.0
 10
6.448540581597221
 20
-4.469028558168146
 30
0.0
 10
6.356024848090278
 20
-4.719245572057035
 30
0.0
 10
6.145534939236111
 20
-4.719245572057035
 30
0.0
 10
6.145534939236111
 20
-4.719245572057035
 30
0.0
 10
6.145534939236111
 20
-4.593892924487591
 30
0.0
 10
6.145534939236111
 20
-4.593892924487591
 30
0.0
 10
6.268731011284721
 20
-4.593892924487591
 30
0.0
 10
6.345852322048611
 20
-4.385315450529257
 30
0.0
 10
6.420437282986111
 20
-4.183601040807035
 30
0.0
 10
6.509901258680555
 20
-3.941630554695924
 30
0.0
 10
6.6024169921875
 20
-3.691427104175091
 30
0.0
 10
6.812893337673611
 20
-3.691427104175091
 30
0.0
 10
7.023396809895833
 20
-3.691427104175091
 30
0.0
 10
7.115912543402778
 20
-3.941630554695924
 30
0.0
 10
7.205390082465278
 20
-4.183601040807035
 30
0.0
 10
7.279975043402778
 20
-4.385315450529257
 30
0.0
 10
7.357109917534721
 20
-4.593892924487591
 30
0.0
 10
7.480319552951388
 20
-4.593892924487591
 30
0.0
 10
7.480319552951388
 20
-4.593892924487591
 30
0.0
 10
7.480319552951388
 20
-4.719245572057035
 30
0.0
 10
7.480319552951388
 20
-4.719245572057035
 30
0.0
  0
HATCH
  5
46
330
41
100
AcDbEntity
  8
Layer 1
 62
    32
420
 15101732
100
AcDbHatch
 10
0.0
 20
0.0
 30
0.0
210
0.0
220
0.0
230
1.0
  2
SOLID
 70
     1
 71
     0
 91
        1
 92
        1
 93
        1
 72
     4
 94
        3
 73
     0
 74
     1
 95
       35
 96
       31
 40
0.0
 40
0.0
 40
0.0
 40
0.0
 40
1.0
 40
1.0
 40
1.0
 40
2.0
 40
2.0
 40
2.0
 40
3.0
 40
3.0
 40
3.0
 40
4.0
 40
4.0
 40
4.0
 40
5.0
 40
5.0
 40
5.0
 40
6.0
 40
6.0
 40
6.0
 40
7.0
 40
7.0
 40
7.0
 40
8.0
 40
8.0
 40
8.0
 40
9.0
 40
9.0
 40
9.0
 40
10.0
 40
10.0
 40
10.0
 40
10.0
 10
7.480319552951388
 20
-4.719245572057035
 10
7.269816080729166
 20
-4.719245572057035
 10
7.177300347222221
 20
-4.469042121536202
 10
7.087822808159721
 20
-4.227071635425091
 10
7.013237847222221
 20
-4.025357225702868
 10
6.936102973090278
 20
-3.816779751744535
 10
6.812893337673611
 20
-3.816779751744535
 10
6.689710828993055
 20
-3.816779751744535
 10
6.612589518229166
 20
-4.025357225702868
 10
6.538004557291666
 20
-4.227058072057035
 10
6.448540581597221
 20
-4.469028558168146
 10
6.356024848090278
 20
-4.719245572057035
 10
6.145534939236111
 20
-4.719245572057035
 10
6.145534939236111
 20
-4.719245572057035
 10
6.145534939236111
 20
-4.593892924487591
 10
6.145534939236111
 20
-4.593892924487591
 10
6.268731011284721
 20
-4.593892924487591
 10
6.345852322048611
 20
-4.385315450529257
 10
6.420437282986111
 20
-4.183601040807035
 10
6.509901258680555
 20
-3.941630554695924
 10
6.6024169921875
 20
-3.691427104175091
 10
6.812893337673611
 20
-3.691427104175091
 10
7.023396809895833
 20
-3.691427104175091
 10
7.115912543402778
 20
-3.941630554695924
 10
7.205390082465278
 20
-4.183601040807035
 10
7.279975043402778
 20
-4.385315450529257
 10
7.357109917534721
 20
-4.593892924487591
 10
7.480319552951388
 20
-4.593892924487591
 10
7.480319552951388
 20
-4.593892924487591
 10
7.480319552951388
 20
-4.719245572057035
 10
7.480319552951388
 20
-4.719245572057035
 97
        0
 97
        0
 75
     2
 76
     1
 98
        0
  0
ENDBLK
  5
44
330
41
100
AcDbEntity
  8
0
100
AcDbBlockEnd
  0
BLOCK
  5
49
330
47
100
AcDbEntity
  8
0
100
AcDbBlockBegin
  2
block 3
 70
     0
 10
0.0
 20
0.0
 30
0.0
  3
block 3
  1

  0
SPLINE
  5
4B
330
47
100
AcDbEntity
  8
Layer 1
370
     0
100
AcDbSpline
210
0.0
220
0.0
230
1.0
 70
    11
 71
     3
 72
   104
 73
   100
 74
     0
 42
0.0000000001
 43
0.0000000001
 12
1.0
 22
0.0
 32
0.0
 13
1.0
 23
0.0
 33
0.0
 40
0.0
 40
0.0
 40
0.0
 40
0.0
 40
1.0
 40
1.0
 40
1.0
 40
2.0
 40
2.0
 40
2.0
 40
3.0
 40
3.0
 40
3.0
 40
4.0
 40
4.0
 40
4.0
 40
5.0
 40
5.0
 40
5.0
 40
6.0
 40
6.0
 40
6.0
 40
7.0
 40
7.0
 40
7.0
 40
8.0
 40
8.0
 40
8.0
 40
9.0
 40
9.0
 40
9.0
 40
10.0
 40
10.0
 40
10.0
 40
11.0
 40
11.0
 40
11.0
 40
12.0
 40
12.0
 40
12.0
 40
13.0
 40
13.0
 40
13.0
 40
14.0
 40
14.0
 40
14.0
 40
15.0
 40
15.0
 40
15.0
 40
16.0
 40
16.0
 40
16.0
 40
17.0
 40
17.0
 40
17.0
 40
18.0
 40
18.0
 40
18.0
 40
19.0
 40
19.0
 40
19.0
 40
20.0
 40
20.0
 40
20.0
 40
21.0
 40
21.0
 40
21.0
 40
22.0
 40
22.0
 40
22.0
 40
23.0
 40
23.0
 40
23.0
 40
24.0
 40
24.0
 40
24.0
 40
25.0
 40
25.0
 40
25.0
 40
26.0
 40
26.0
 40
26.0
 40
27.0
 40
27.0
 40
27.0
 40
28.0
 40
28.0
 40
28.0
 40
29.0
 40
29.0
 40
29.0
 40
30.0
 40
30.0
 40
30.0
 40
31.0
 40
31.0
 40
31.0
 40
32.0
 40
32.0
 40
32.0
 40
33.0
 40
33.0
 40
33.0
 40
33.0
 10
2.762383355034722
 20
-4.725165473090278
 30
0.0
 10
2.601087782118055
 20
-4.725165473090278
 30
0.0
 10
2.476236979166667
 20
-4.718912760416666
 30
0.0
 10
2.391303168402778
 20
-4.706597222222222
 30
0.0
 10
2.305636935763889
 20
-4.694173177083333
 30
0.0
 10
2.2396240234375
 20
-4.672336154513888
 30
0.0
 10
2.195102267795139
 20
-4.641710069444444
 30
0.0
 10
2.0948486328125
 20
-4.570692274305555
 30
0.0
 10
2.044060601128472
 20
-4.429063585069445
 30
0.0
 10
2.044060601128472
 20
-4.220669216579861
 30
0.0
 10
2.044060601128472
 20
-4.077528211805555
 30
0.0
 10
2.065816243489583
 20
-3.967068142361111
 30
0.0
 10
2.108717176649305
 20
-3.892361111111111
 30
0.0
 10
2.136528862847222
 20
-3.84368896484375
 30
0.0
 10
2.16943359375
 20
-3.80657958984375
 30
0.0
 10
2.206522623697917
 20
-3.782084147135417
 30
0.0
 10
2.243421766493055
 20
-3.757731119791667
 30
0.0
 10
2.285698784722222
 20
-3.7401123046875
 30
0.0
 10
2.332187228732639
 20
-3.729702419704861
 30
0.0
 10
2.378194173177083
 20
-3.719401041666667
 30
0.0
 10
2.429863823784722
 20
-3.713812934027778
 30
0.0
 10
2.485758463541667
 20
-3.713080512152778
 30
0.0
 10
2.541232638888889
 20
-3.712409125434028
 30
0.0
 10
2.601094563802083
 20
-3.712070041232639
 30
0.0
 10
2.663689507378472
 20
-3.712070041232639
 30
0.0
 10
2.724683973524305
 20
-3.712070041232639
 30
0.0
 10
2.781026204427083
 20
-3.711724175347222
 30
0.0
 10
2.831163194444444
 20
-3.711032443576389
 30
0.0
 10
2.882758246527778
 20
-3.710306803385417
 30
0.0
 10
2.931850857204861
 20
-3.713494194878472
 30
0.0
 10
2.977247450086805
 20
-3.720350477430555
 30
0.0
 10
3.022908528645833
 20
-3.727301703559028
 30
0.0
 10
3.065395779079861
 20
-3.739956325954861
 30
0.0
 10
3.103556315104167
 20
-3.757954915364583
 30
0.0
 10
3.141920301649305
 20
-3.776102701822917
 30
0.0
 10
3.178290473090278
 20
-3.804328070746528
 30
0.0
 10
3.211669921875
 20
-3.841851128472222
 30
0.0
 10
3.2366943359375
 20
-3.871046278211805
 30
0.0
 10
3.256076306633481
 20
-3.901021321614583
 30
0.0
 10
3.269368489583333
 20
-3.931037055121528
 30
0.0
 10
3.282545301649305
 20
-3.960903591579861
 30
0.0
 10
3.292392306857639
 20
-3.992533365885417
 30
0.0
 10
3.298631456163194
 20
-4.025065104166666
 30
0.0
 10
3.304816351996528
 20
-4.057413736979166
 30
0.0
 10
3.308315700954861
 20
-4.092746310763888
 30
0.0
 10
3.309027777777778
 20
-4.130072699652778
 30
0.0
 10
3.309699164496528
 20
-4.167066786024305
 30
0.0
 10
3.310736762152778
 20
-4.208150227864583
 30
0.0
 10
3.312106662326389
 20
-4.25335693359375
 30
0.0
 10
3.312106662326389
 20
-4.25335693359375
 30
0.0
 10
3.31231689453125
 20
-4.260511610243055
 30
0.0
 10
3.31231689453125
 20
-4.260511610243055
 30
0.0
 10
3.31231689453125
 20
-4.260511610243055
 30
0.0
 10
2.224758572048611
 20
-4.260511610243055
 30
0.0
 10
2.224758572048611
 20
-4.260511610243055
 30
0.0
 10
2.2294921875
 20
-4.373697916666666
 30
0.0
 10
2.252963595920139
 20
-4.453423394097222
 30
0.0
 10
2.2945556640625
 20
-4.497572157118055
 30
0.0
 10
2.318352593315972
 20
-4.522705078125
 30
0.0
 10
2.346489800347222
 20
-4.5411376953125
 30
0.0
 10
2.378160264756944
 20
-4.552327473958333
 30
0.0
 10
2.410434299045139
 20
-4.563774956597222
 30
0.0
 10
2.446173773871528
 20
-4.571248372395833
 30
0.0
 10
2.484395345052083
 20
-4.574571397569444
 30
0.0
 10
2.523037380642361
 20
-4.577975802951388
 30
0.0
 10
2.564860026041667
 20
-4.579033745659722
 30
0.0
 10
2.609002007378472
 20
-4.577650282118055
 30
0.0
 10
2.653828938802083
 20
-4.576280381944444
 30
0.0
 10
2.699903700086805
 20
-4.575575086805555
 30
0.0
 10
2.745937771267361
 20
-4.575575086805555
 30
0.0
 10
2.855963812934028
 20
-4.575575086805555
 30
0.0
 10
2.937472873263889
 20
-4.5704345703125
 30
0.0
 10
2.988206651475694
 20
-4.560302734375
 30
0.0
 10
3.037896050347222
 20
-4.550360785590278
 30
0.0
 10
3.075005425347222
 20
-4.532063802083333
 30
0.0
 10
3.098517523871528
 20
-4.505927191840278
 30
0.0
 10
3.1180419921875
 20
-4.486382378472222
 30
0.0
 10
3.12982177734375
 20
-4.452555338541666
 30
0.0
 10
3.133775499131944
 20
-4.405137803819445
 30
0.0
 10
3.133775499131944
 20
-4.405137803819445
 30
0.0
 10
3.134304470486111
 20
-4.398776584201388
 30
0.0
 10
3.134304470486111
 20
-4.398776584201388
 30
0.0
 10
3.134304470486111
 20
-4.398776584201388
 30
0.0
 10
3.308125813802083
 20
-4.398776584201388
 30
0.0
 10
3.308125813802083
 20
-4.398776584201388
 30
0.0
 10
3.308125813802083
 20
-4.398776584201388
 30
0.0
 10
3.307996961805555
 20
-4.405856662326388
 30
0.0
 10
3.307996961805555
 20
-4.405856662326388
 30
0.0
 10
3.306599934895833
 20
-4.480943467881944
 30
0.0
 10
3.290974934895833
 20
-4.540676540798611
 30
0.0
 10
3.261549207899305
 20
-4.5833740234375
 30
0.0
 10
3.232177734375
 20
-4.626057942708333
 30
0.0
 10
3.192430284288194
 20
-4.658365885416666
 30
0.0
 10
3.143425835503472
 20
-4.679375542534722
 30
0.0
 10
3.094970703125
 20
-4.700127495659722
 30
0.0
 10
3.037150065104167
 20
-4.713107638888888
 30
0.0
 10
2.971577962239583
 20
-4.717963324652778
 30
0.0
 10
2.906534830729167
 20
-4.722737630208333
 30
0.0
 10
2.836154513888889
 20
-4.725165473090278
 30
0.0
 10
2.762383355034722
 20
-4.725165473090278
 30
0.0
  0
SPLINE
  5
4C
330
47
100
AcDbEntity
  8
Layer 1
370
     0
100
AcDbSpline
210
0.0
220
0.0
230
1.0
 70
    11
 71
     3
 72
    26
 73
    22
 74
     0
 42
0.0000000001
 43
0.0000000001
 12
1.0
 22
0.0
 32
0.0
 13
1.0
 23
0.0
 33
0.0
 40
0.0
 40
0.0
 40
0.0
 40
0.0
 40
1.0
 40
1.0
 40
1.0
 40
2.0
 40
2.0
 40
2.0
 40
3.0
 40
3.0
 40
3.0
 40
4.0
 40
4.0
 40
4.0
 40
5.0
 40
5.0
 40
5.0
 40
6.0
 40
6.0
 40
6.0
 40
7.0
 40
7.0
 40
7.0
 40
7.0
 10
2.231194390190972
 20
-4.115037706163195
 30
0.0
 10
2.231194390190972
 20
-4.115037706163195
 30
0.0
 10
3.125474717881944
 20
-4.115037706163195
 30
0.0
 10
3.125474717881944
 20
-4.115037706163195
 30
0.0
 10
3.124308268229167
 20
-4.025465223524305
 30
0.0
 10
3.100335015190972
 20
-3.961880154079861
 30
0.0
 10
3.054178873697917
 20
-3.925977918836805
 30
0.0
 10
3.0224609375
 20
-3.902180989583333
 30
0.0
 10
2.976793077256944
 20
-3.885328504774305
 30
0.0
 10
2.918558756510417
 20
-3.875956217447917
 30
0.0
 10
2.859408908420139
 20
-3.866455078125
 30
0.0
 10
2.77227783203125
 20
-3.861640082465278
 30
0.0
 10
2.659579806857639
 20
-3.861640082465278
 30
0.0
 10
2.55908203125
 20
-3.861640082465278
 30
0.0
 10
2.482001410590278
 20
-3.866102430555555
 30
0.0
 10
2.430474175347222
 20
-3.874905056423611
 30
0.0
 10
2.379733615451389
 20
-3.88360595703125
 30
0.0
 10
2.339260525173611
 20
-3.899407280815972
 30
0.0
 10
2.310187445746528
 20
-3.921875
 30
0.0
 10
2.265299479166667
 20
-3.957790798611111
 30
0.0
 10
2.23870849609375
 20
-4.022779676649305
 30
0.0
 10
2.231194390190972
 20
-4.115037706163195
 30
0.0
  0
HATCH
  5
4D
330
47
100
AcDbEntity
  8
Layer 1
 62
   250
420
  4210753
100
AcDbHatch
 10
0.0
 20
0.0
 30
0.0
210
0.0
220
0.0
230
1.0
  2
SOLID
 70
     1
 71
     0
 91
        2
 92
        1
 93
        1
 72
     4
 94
        3
 73
     0
 74
     1
 95
      104
 96
      100
 40
0.0
 40
0.0
 40
0.0
 40
0.0
 40
1.0
 40
1.0
 40
1.0
 40
2.0
 40
2.0
 40
2.0
 40
3.0
 40
3.0
 40
3.0
 40
4.0
 40
4.0
 40
4.0
 40
5.0
 40
5.0
 40
5.0
 40
6.0
 40
6.0
 40
6.0
 40
7.0
 40
7.0
 40
7.0
 40
8.0
 40
8.0
 40
8.0
 40
9.0
 40
9.0
 40
9.0
 40
10.0
 40
10.0
 40
10.0
 40
11.0
 40
11.0
 40
11.0
 40
12.0
 40
12.0
 40
12.0
 40
13.0
 40
13.0
 40
13.0
 40
14.0
 40
14.0
 40
14.0
 40
15.0
 40
15.0
 40
15.0
 40
16.0
 40
16.0
 40
16.0
 40
17.0
 40
17.0
 40
17.0
 40
18.0
 40
18.0
 40
18.0
 40
19.0
 40
19.0
 40
19.0
 40
20.0
 40
20.0
 40
20.0
 40
21.0
 40
21.0
 40
21.0
 40
22.0
 40
22.0
 40
22.0
 40
23.0
 40
23.0
 40
23.0
 40
24.0
 40
24.0
 40
24.0
 40
25.0
 40
25.0
 40
25.0
 40
26.0
 40
26.0
 40
26.0
 40
27.0
 40
27.0
 40
27.0
 40
28.0
 40
28.0
 40
28.0
 40
29.0
 40
29.0
 40
29.0
 40
30.0
 40
30.0
 40
30.0
 40
31.0
 40
31.0
 40
31.0
 40
32.0
 40
32.0
 40
32.0
 40
33.0
 40
33.0
 40
33.0
 40
33.0
 10
2.762383355034722
 20
-4.725165473090278
 10
2.601087782118055
 20
-4.725165473090278
 10
2.476236979166667
 20
-4.718912760416666
 10
2.391303168402778
 20
-4.706597222222222
 10
2.305636935763889
 20
-4.694173177083333
 10
2.2396240234375
 20
-4.672336154513888
 10
2.195102267795139
 20
-4.641710069444444
 10
2.0948486328125
 20
-4.570692274305555
 10
2.044060601128472
 20
-4.429063585069445
 10
2.044060601128472
 20
-4.220669216579861
 10
2.044060601128472
 20
-4.077528211805555
 10
2.065816243489583
 20
-3.967068142361111
 10
2.108717176649305
 20
-3.892361111111111
 10
2.136528862847222
 20
-3.84368896484375
 10
2.16943359375
 20
-3.80657958984375
 10
2.206522623697917
 20
-3.782084147135417
 10
2.243421766493055
 20
-3.757731119791667
 10
2.285698784722222
 20
-3.7401123046875
 10
2.332187228732639
 20
-3.729702419704861
 10
2.378194173177083
 20
-3.719401041666667
 10
2.429863823784722
 20
-3.713812934027778
 10
2.485758463541667
 20
-3.713080512152778
 10
2.541232638888889
 20
-3.712409125434028
 10
2.601094563802083
 20
-3.712070041232639
 10
2.663689507378472
 20
-3.712070041232639
 10
2.724683973524305
 20
-3.712070041232639
 10
2.781026204427083
 20
-3.711724175347222
 10
2.831163194444444
 20
-3.711032443576389
 10
2.882758246527778
 20
-3.710306803385417
 10
2.931850857204861
 20
-3.713494194878472
 10
2.977247450086805
 20
-3.720350477430555
 10
3.022908528645833
 20
-3.727301703559028
 10
3.065395779079861
 20
-3.739956325954861
 10
3.103556315104167
 20
-3.757954915364583
 10
3.141920301649305
 20
-3.776102701822917
 10
3.178290473090278
 20
-3.804328070746528
 10
3.211669921875
 20
-3.841851128472222
 10
3.2366943359375
 20
-3.871046278211805
 10
3.256076306633481
 20
-3.901021321614583
 10
3.269368489583333
 20
-3.931037055121528
 10
3.282545301649305
 20
-3.960903591579861
 10
3.292392306857639
 20
-3.992533365885417
 10
3.298631456163194
 20
-4.025065104166666
 10
3.304816351996528
 20
-4.057413736979166
 10
3.308315700954861
 20
-4.092746310763888
 10
3.309027777777778
 20
-4.130072699652778
 10
3.309699164496528
 20
-4.167066786024305
 10
3.310736762152778
 20
-4.208150227864583
 10
3.312106662326389
 20
-4.25335693359375
 10
3.312106662326389
 20
-4.25335693359375
 10
3.31231689453125
 20
-4.260511610243055
 10
3.31231689453125
 20
-4.260511610243055
 10
3.31231689453125
 20
-4.260511610243055
 10
2.224758572048611
 20
-4.260511610243055
 10
2.224758572048611
 20
-4.260511610243055
 10
2.2294921875
 20
-4.373697916666666
 10
2.252963595920139
 20
-4.453423394097222
 10
2.2945556640625
 20
-4.497572157118055
 10
2.318352593315972
 20
-4.522705078125
 10
2.346489800347222
 20
-4.5411376953125
 10
2.378160264756944
 20
-4.552327473958333
 10
2.410434299045139
 20
-4.563774956597222
 10
2.446173773871528
 20
-4.571248372395833
 10
2.484395345052083
 20
-4.574571397569444
 10
2.523037380642361
 20
-4.577975802951388
 10
2.564860026041667
 20
-4.579033745659722
 10
2.609002007378472
 20
-4.577650282118055
 10
2.653828938802083
 20
-4.576280381944444
 10
2.699903700086805
 20
-4.575575086805555
 10
2.745937771267361
 20
-4.575575086805555
 10
2.855963812934028
 20
-4.575575086805555
 10
2.937472873263889
 20
-4.5704345703125
 10
2.988206651475694
 20
-4.560302734375
 10
3.037896050347222
 20
-4.550360785590278
 10
3.075005425347222
 20
-4.532063802083333
 10
3.098517523871528
 20
-4.505927191840278
 10
3.1180419921875
 20
-4.486382378472222
 10
3.12982177734375
 20
-4.452555338541666
 10
3.133775499131944
 20
-4.405137803819445
 10
3.133775499131944
 20
-4.405137803819445
 10
3.134304470486111
 20
-4.398776584201388
 10
3.134304470486111
 20
-4.398776584201388
 10
3.134304470486111
 20
-4.398776584201388
 10
3.308125813802083
 20
-4.398776584201388
 10
3.308125813802083
 20
-4.398776584201388
 10
3.308125813802083
 20
-4.398776584201388
 10
3.307996961805555
 20
-4.405856662326388
 10
3.307996961805555
 20
-4.405856662326388
 10
3.306599934895833
 20
-4.480943467881944
 10
3.290974934895833
 20
-4.540676540798611
 10
3.261549207899305
 20
-4.5833740234375
 10
3.232177734375
 20
-4.626057942708333
 10
3.192430284288194
 20
-4.658365885416666
 10
3.143425835503472
 20
-4.679375542534722
 10
3.094970703125
 20
-4.700127495659722
 10
3.037150065104167
 20
-4.713107638888888
 10
2.971577962239583
 20
-4.717963324652778
 10
2.906534830729167
 20
-4.722737630208333
 10
2.836154513888889
 20
-4.725165473090278
 10
2.762383355034722
 20
-4.725165473090278
 97
        0
 97
        0
 92
        1
 93
        1
 72
     4
 94
        3
 73
     0
 74
     1
 95
       26
 96
       22
 40
0.0
 40
0.0
 40
0.0
 40
0.0
 40
1.0
 40
1.0
 40
1.0
 40
2.0
 40
2.0
 40
2.0
 40
3.0
 40
3.0
 40
3.0
 40
4.0
 40
4.0
 40
4.0
 40
5.0
 40
5.0
 40
5.0
 40
6.0
 40
6.0
 40
6.0
 40
7.0
 40
7.0
 40
7.0
 40
7.0
 10
2.231194390190972
 20
-4.115037706163195
 10
2.231194390190972
 20
-4.115037706163195
 10
3.125474717881944
 20
-4.115037706163195
 10
3.125474717881944
 20
-4.115037706163195
 10
3.124308268229167
 20
-4.025465223524305
 10
3.100335015190972
 20
-3.961880154079861
 10
3.054178873697917
 20
-3.925977918836805
 10
3.0224609375
 20
-3.902180989583333
 10
2.976793077256944
 20
-3.885328504774305
 10
2.918558756510417
 20
-3.875956217447917
 10
2.859408908420139
 20
-3.866455078125
 10
2.77227783203125
 20
-3.861640082465278
 10
2.659579806857639
 20
-3.861640082465278
 10
2.55908203125
 20
-3.861640082465278
 10
2.482001410590278
 20
-3.866102430555555
 10
2.430474175347222
 20
-3.874905056423611
 10
2.379733615451389
 20
-3.88360595703125
 10
2.339260525173611
 20
-3.899407280815972
 10
2.310187445746528
 20
-3.921875
 10
2.265299479166667
 20
-3.957790798611111
 10
2.23870849609375
 20
-4.022779676649305
 10
2.231194390190972
 20
-4.115037706163195
 97
        0
 97
        0
 75
     2
 76
     1
 98
        0
  0
ENDBLK
  5
4A
330
47
100
AcDbEntity
  8
0
100
AcDbBlockEnd
  0
BLOCK
  5
50
330
4E
100
AcDbEntity
  8
0
100
AcDbBlockBegin
  2
block 4
 70
     0
 10
0.0
 20
0.0
 30
0.0
  3
block 4
  1

  0
SPLINE
  5
52
330
4E
100
AcDbEntity
  8
Layer 1
370
     0
100
AcDbSpline
210
0.0
220
0.0
230
1.0
 70
    11
 71
     3
 72
    89
 73
    85
 74
     0
 42
0.0000000001
 43
0.0000000001
 12
1.0
 22
0.0
 32
0.0
 13
1.0
 23
0.0
 33
0.0
 40
0.0
 40
0.0
 40
0.0
 40
0.0
 40
1.0
 40
1.0
 40
1.0
 40
2.0
 40
2.0
 40
2.0
 40
3.0
 40
3.0
 40
3.0
 40
4.0
 40
4.0
 40
4.0
 40
5.0
 40
5.0
 40
5.0
 40
6.0
 40
6.0
 40
6.0
 40
7.0
 40
7.0
 40
7.0
 40
8.0
 40
8.0
 40
8.0
 40
9.0
 40
9.0
 40
9.0
 40
10.0
 40
10.0
 40
10.0
 40
11.0
 40
11.0
 40
11.0
 40
12.0
 40
12.0
 40
12.0
 40
13.0
 40
13.0
 40
13.0
 40
14.0
 40
14.0
 40
14.0
 40
15.0
 40
15.0
 40
15.0
 40
16.0
 40
16.0
 40
16.0
 40
17.0
 40
17.0
 40
17.0
 40
18.0
 40
18.0
 40
18.0
 40
19.0
 40
19.0
 40
19.0
 40
20.0
 40
20.0
 40
20.0
 40
21.0
 40
21.0
 40
21.0
 40
22.0
 40
22.0
 40
22.0
 40
23.0
 40
23.0
 40
23.0
 40
24.0
 40
24.0
 40
24.0
 40
25.0
 40
25.0
 40
25.0
 40
26.0
 40
26.0
 40
26.0
 40
27.0
 40
27.0
 40
27.0
 40
28.0
 40
28.0
 40
28.0
 40
28.0
 10
4.66082763671875
 20
-4.721733940972222
 30
0.0
 10
4.66082763671875
 20
-4.721733940972222
 30
0.0
 10
4.492757161458333
 20
-4.721733940972222
 30
0.0
 10
4.492757161458333
 20
-4.721733940972222
 30
0.0
 10
4.492757161458333
 20
-4.721733940972222
 30
0.0
 10
4.492757161458333
 20
-4.220669216579861
 30
0.0
 10
4.492757161458333
 20
-4.220669216579861
 30
0.0
 10
4.492757161458333
 20
-4.133829752604166
 30
0.0
 10
4.489332411024305
 20
-4.070956759982638
 30
0.0
 10
4.482577853732638
 20
-4.033793131510416
 30
0.0
 10
4.4759521484375
 20
-3.997490776909722
 30
0.0
 10
4.461941189236111
 20
-3.966403537326389
 30
0.0
 10
4.440938313802083
 20
-3.941413031684028
 30
0.0
 10
4.414727105034722
 20
-3.91265869140625
 30
0.0
 10
4.375115288628472
 20
-3.891913519965278
 30
0.0
 10
4.323384602864583
 20
-3.879977756076389
 30
0.0
 10
4.270650227864583
 20
-3.867811414930555
 30
0.0
 10
4.190233018663195
 20
-3.861640082465278
 30
0.0
 10
4.084377712673611
 20
-3.861640082465278
 30
0.0
 10
3.966328938802083
 20
-3.861640082465278
 30
0.0
 10
3.873175726996528
 20
-3.870218912760417
 30
0.0
 10
3.807515462239583
 20
-3.887132432725694
 30
0.0
 10
3.742791069878472
 20
-3.903828938802083
 30
0.0
 10
3.693861219618055
 20
-3.931755913628472
 30
0.0
 10
3.662089029947917
 20
-3.970147026909722
 30
0.0
 10
3.644775390625
 20
-3.991448296440972
 30
0.0
 10
3.631971571180555
 20
-4.011644151475695
 30
0.0
 10
3.624057345920139
 20
-4.030137803819445
 30
0.0
 10
3.616095648871528
 20
-4.048726399739583
 30
0.0
 10
3.610731336805555
 20
-4.06884765625
 30
0.0
 10
3.608113606770833
 20
-4.089931911892361
 30
0.0
 10
3.60540771484375
 20
-4.111436631944445
 30
0.0
 10
3.604376898871528
 20
-4.135294596354166
 30
0.0
 10
3.605068630642361
 20
-4.160861545138888
 30
0.0
 10
3.605753580729167
 20
-4.186848958333333
 30
0.0
 10
3.606106228298611
 20
-4.218037923177083
 30
0.0
 10
3.606106228298611
 20
-4.253567165798611
 30
0.0
 10
3.606106228298611
 20
-4.253567165798611
 30
0.0
 10
3.606106228298611
 20
-4.721733940972222
 30
0.0
 10
3.606106228298611
 20
-4.721733940972222
 30
0.0
 10
3.606106228298611
 20
-4.721733940972222
 30
0.0
 10
3.438015407986111
 20
-4.721733940972222
 30
0.0
 10
3.438015407986111
 20
-4.721733940972222
 30
0.0
 10
3.438015407986111
 20
-4.721733940972222
 30
0.0
 10
3.438015407986111
 20
-3.724392361111111
 30
0.0
 10
3.438015407986111
 20
-3.724392361111111
 30
0.0
 10
3.438015407986111
 20
-3.724392361111111
 30
0.0
 10
3.606106228298611
 20
-3.724392361111111
 30
0.0
 10
3.606106228298611
 20
-3.724392361111111
 30
0.0
 10
3.606106228298611
 20
-3.724392361111111
 30
0.0
 10
3.606106228298611
 20
-3.870374891493055
 30
0.0
 10
3.606106228298611
 20
-3.870374891493055
 30
0.0
 10
3.606106228298611
 20
-3.870374891493055
 30
0.0
 10
3.607293023003472
 20
-3.870374891493055
 30
0.0
 10
3.607293023003472
 20
-3.870374891493055
 30
0.0
 10
3.62933349609375
 20
-3.828877766927083
 30
0.0
 10
3.657097710503472
 20
-3.796780056423611
 30
0.0
 10
3.68988037109375
 20
-3.774909125434028
 30
0.0
 10
3.723368326822917
 20
-3.752604166666667
 30
0.0
 10
3.7618408203125
 20
-3.736362033420139
 30
0.0
 10
3.804233127170139
 20
-3.726630316840278
 30
0.0
 10
3.846442328559028
 20
-3.716966417100694
 30
0.0
 10
3.893303765190972
 20
-3.712070041232639
 30
0.0
 10
3.943535698784722
 20
-3.712070041232639
 30
0.0
 10
3.943535698784722
 20
-3.712070041232639
 30
0.0
 10
4.243720160590278
 20
-3.712070041232639
 30
0.0
 10
4.243720160590278
 20
-3.712070041232639
 30
0.0
 10
4.288384331597222
 20
-3.712070041232639
 30
0.0
 10
4.331278483072916
 20
-3.715203179253472
 30
0.0
 10
4.371229383680555
 20
-3.721388075086805
 30
0.0
 10
4.411370171440972
 20
-3.727627224392361
 30
0.0
 10
4.448933919270833
 20
-3.738165961371528
 30
0.0
 10
4.482889811197916
 20
-3.752705891927083
 30
0.0
 10
4.51715087890625
 20
-3.76739501953125
 30
0.0
 10
4.549391004774305
 20
-3.790418836805555
 30
0.0
 10
4.578721788194444
 20
-3.821126302083333
 30
0.0
 10
4.609598795572916
 20
-3.853427463107639
 30
0.0
 10
4.63128662109375
 20
-3.894612630208333
 30
0.0
 10
4.643181694878472
 20
-3.943528917100694
 30
0.0
 10
4.654893663194444
 20
-3.991963704427083
 30
0.0
 10
4.66082763671875
 20
-4.063069661458333
 30
0.0
 10
4.66082763671875
 20
-4.154880099826388
 30
0.0
 10
4.66082763671875
 20
-4.154880099826388
 30
0.0
 10
4.66082763671875
 20
-4.721733940972222
 30
0.0
 10
4.66082763671875
 20
-4.721733940972222
 30
0.0
  0
HATCH
  5
53
330
4E
100
AcDbEntity
  8
Layer 1
 62
   250
420
  4210753
100
AcDbHatch
 10
0.0
 20
0.0
 30
0.0
210
0.0
220
0.0
230
1.0
  2
SOLID
 70
     1
 71
     0
 91
        1
 92
        1
 93
        1
 72
     4
 94
        3
 73
     0
 74
     1
 95
       89
 96
       85
 40
0.0
 40
0.0
 40
0.0
 40
0.0
 40
1.0
 40
1.0
 40
1.0
 40
2.0
 40
2.0
 40
2.0
 40
3.0
 40
3.0
 40
3.0
 40
4.0
 40
4.0
 40
4.0
 40
5.0
 40
5.0
 40
5.0
 40
6.0
 40
6.0
 40
6.0
 40
7.0
 40
7.0
 40
7.0
 40
8.0
 40
8.0
 40
8.0
 40
9.0
 40
9.0
 40
9.0
 40
10.0
 40
10.0
 40
10.0
 40
11.0
 40
11.0
 40
11.0
 40
12.0
 40
12.0
 40
12.0
 40
13.0
 40
13.0
 40
13.0
 40
14.0
 40
14.0
 40
14.0
 40
15.0
 40
15.0
 40
15.0
 40
16.0
 40
16.0
 40
16.0
 40
17.0
 40
17.0
 40
17.0
 40
18.0
 40
18.0
 40
18.0
 40
19.0
 40
19.0
 40
19.0
 40
20.0
 40
20.0
 40
20.0
 40
21.0
 40
21.0
 40
21.0
 40
22.0
 40
22.0
 40
22.0
 40
23.0
 40
23.0
 40
23.0
 40
24.0
 40
24.0
 40
24.0
 40
25.0
 40
25.0
 40
25.0
 40
26.0
 40
26.0
 40
26.0
 40
27.0
 40
27.0
 40
27.0
 40
28.0
 40
28.0
 40
28.0
 40
28.0
 10
4.66082763671875
 20
-4.721733940972222
 10
4.66082763671875
 20
-4.721733940972222
 10
4.492757161458333
 20
-4.721733940972222
 10
4.492757161458333
 20
-4.721733940972222
 10
4.492757161458333
 20
-4.721733940972222
 10
4.492757161458333
 20
-4.220669216579861
 10
4.492757161458333
 20
-4.220669216579861
 10
4.492757161458333
 20
-4.133829752604166
 10
4.489332411024305
 20
-4.070956759982638
 10
4.482577853732638
 20
-4.033793131510416
 10
4.4759521484375
 20
-3.997490776909722
 10
4.461941189236111
 20
-3.966403537326389
 10
4.440938313802083
 20
-3.941413031684028
 10
4.414727105034722
 20
-3.91265869140625
 10
4.375115288628472
 20
-3.891913519965278
 10
4.323384602864583
 20
-3.879977756076389
 10
4.270650227864583
 20
-3.867811414930555
 10
4.190233018663195
 20
-3.861640082465278
 10
4.084377712673611
 20
-3.861640082465278
 10
3.966328938802083
 20
-3.861640082465278
 10
3.873175726996528
 20
-3.870218912760417
 10
3.807515462239583
 20
-3.887132432725694
 10
3.742791069878472
 20
-3.903828938802083
 10
3.693861219618055
 20
-3.931755913628472
 10
3.662089029947917
 20
-3.970147026909722
 10
3.644775390625
 20
-3.991448296440972
 10
3.631971571180555
 20
-4.011644151475695
 10
3.624057345920139
 20
-4.030137803819445
 10
3.616095648871528
 20
-4.048726399739583
 10
3.610731336805555
 20
-4.06884765625
 10
3.608113606770833
 20
-4.089931911892361
 10
3.60540771484375
 20
-4.111436631944445
 10
3.604376898871528
 20
-4.135294596354166
 10
3.605068630642361
 20
-4.160861545138888
 10
3.605753580729167
 20
-4.186848958333333
 10
3.606106228298611
 20
-4.218037923177083
 10
3.606106228298611
 20
-4.253567165798611
 10
3.606106228298611
 20
-4.253567165798611
 10
3.606106228298611
 20
-4.721733940972222
 10
3.606106228298611
 20
-4.721733940972222
 10
3.606106228298611
 20
-4.721733940972222
 10
3.438015407986111
 20
-4.721733940972222
 10
3.438015407986111
 20
-4.721733940972222
 10
3.438015407986111
 20
-4.721733940972222
 10
3.438015407986111
 20
-3.724392361111111
 10
3.438015407986111
 20
-3.724392361111111
 10
3.438015407986111
 20
-3.724392361111111
 10
3.606106228298611
 20
-3.724392361111111
 10
3.606106228298611
 20
-3.724392361111111
 10
3.606106228298611
 20
-3.724392361111111
 10
3.606106228298611
 20
-3.870374891493055
 10
3.606106228298611
 20
-3.870374891493055
 10
3.606106228298611
 20
-3.870374891493055
 10
3.607293023003472
 20
-3.870374891493055
 10
3.607293023003472
 20
-3.870374891493055
 10
3.62933349609375
 20
-3.828877766927083
 10
3.657097710503472
 20
-3.796780056423611
 10
3.68988037109375
 20
-3.774909125434028
 10
3.723368326822917
 20
-3.752604166666667
 10
3.7618408203125
 20
-3.736362033420139
 10
3.804233127170139
 20
-3.726630316840278
 10
3.846442328559028
 20
-3.716966417100694
 10
3.893303765190972
 20
-3.712070041232639
 10
3.943535698784722
 20
-3.712070041232639
 10
3.943535698784722
 20
-3.712070041232639
 10
4.243720160590278
 20
-3.712070041232639
 10
4.243720160590278
 20
-3.712070041232639
 10
4.288384331597222
 20
-3.712070041232639
 10
4.331278483072916
 20
-3.715203179253472
 10
4.371229383680555
 20
-3.721388075086805
 10
4.411370171440972
 20
-3.727627224392361
 10
4.448933919270833
 20
-3.738165961371528
 10
4.482889811197916
 20
-3.752705891927083
 10
4.51715087890625
 20
-3.76739501953125
 10
4.549391004774305
 20
-3.790418836805555
 10
4.578721788194444
 20
-3.821126302083333
 10
4.609598795572916
 20
-3.853427463107639
 10
4.63128662109375
 20
-3.894612630208333
 10
4.643181694878472
 20
-3.943528917100694
 10
4.654893663194444
 20
-3.991963704427083
 10
4.66082763671875
 20
-4.063069661458333
 10
4.66082763671875
 20
-4.154880099826388
 10
4.66082763671875
 20
-4.154880099826388
 10
4.66082763671875
 20
-4.721733940972222
 10
4.66082763671875
 20
-4.721733940972222
 97
        0
 97
        0
 75
     2
 76
     1
 98
        0
  0
ENDBLK
  5
51
330
4E
100
AcDbEntity
  8
0
100
AcDbBlockEnd
  0
BLOCK
  5
56
330
54
100
AcDbEntity
  8
0
100
AcDbBlockBegin
  2
block 5
 70
     0
 10
0.0
 20
0.0
 30
0.0
  3
block 5
  1

  0
SPLINE
  5
58
330
54
100
AcDbEntity
  8
Layer 1
370
     0
100
AcDbSpline
210
0.0
220
0.0
230
1.0
 70
    11
 71
     3
 72
    62
 73
    58
 74
     0
 42
0.0000000001
 43
0.0000000001
 12
1.0
 22
0.0
 32
0.0
 13
1.0
 23
0.0
 33
0.0
 40
0.0
 40
0.0
 40
0.0
 40
0.0
 40
1.0
 40
1.0
 40
1.0
 40
2.0
 40
2.0
 40
2.0
 40
3.0
 40
3.0
 40
3.0
 40
4.0
 40
4.0
 40
4.0
 40
5.0
 40
5.0
 40
5.0
 40
6.0
 40
6.0
 40
6.0
 40
7.0
 40
7.0
 40
7.0
 40
8.0
 40
8.0
 40
8.0
 40
9.0
 40
9.0
 40
9.0
 40
10.0
 40
10.0
 40
10.0
 40
11.0
 40
11.0
 40
11.0
 40
12.0
 40
12.0
 40
12.0
 40
13.0
 40
13.0
 40
13.0
 40
14.0
 40
14.0
 40
14.0
 40
15.0
 40
15.0
 40
15.0
 40
16.0
 40
16.0
 40
16.0
 40
17.0
 40
17.0
 40
17.0
 40
18.0
 40
18.0
 40
18.0
 40
19.0
 40
19.0
 40
19.0
 40
19.0
 10
5.673923068576388
 20
-4.724867078993055
 30
0.0
 10
5.650051540798611
 20
-4.724867078993055
 30
0.0
 10
5.623060438368055
 20
-4.724216037326388
 30
0.0
 10
5.593682183159722
 20
-4.722927517361111
 30
0.0
 10
5.550198025173611
 20
-4.720933702256944
 30
0.0
 10
5.492763943142361
 20
-4.719970703125
 30
0.0
 10
5.4180908203125
 20
-4.719970703125
 30
0.0
 10
5.350375705295138
 20
-4.719970703125
 30
0.0
 10
5.299357096354166
 20
-4.720458984375
 30
0.0
 10
5.262125651041666
 20
-4.721449110243055
 30
0.0
 10
5.224236382378472
 20
-4.722398546006944
 30
0.0
 10
5.191826714409722
 20
-4.722669813368055
 30
0.0
 10
5.164788140190972
 20
-4.722181532118055
 30
0.0
 10
5.164788140190972
 20
-4.722181532118055
 30
0.0
 10
5.154500325520833
 20
-4.721706814236111
 30
0.0
 10
5.154500325520833
 20
-4.721706814236111
 30
0.0
 10
5.154500325520833
 20
-4.721706814236111
 30
0.0
 10
4.834710015190972
 20
-4.721720377604166
 30
0.0
 10
4.834710015190972
 20
-4.721720377604166
 30
0.0
 10
4.834710015190972
 20
-4.721720377604166
 30
0.0
 10
4.834710015190972
 20
-3.710822211371528
 30
0.0
 10
4.834710015190972
 20
-3.710822211371528
 30
0.0
 10
4.834710015190972
 20
-3.710822211371528
 30
0.0
 10
5.537543402777778
 20
-3.710822211371528
 30
0.0
 10
5.537543402777778
 20
-3.710822211371528
 30
0.0
 10
5.691080729166666
 20
-3.710822211371528
 30
0.0
 10
5.800442165798611
 20
-3.716824001736111
 30
0.0
 10
5.862589518229166
 20
-3.728658040364583
 30
0.0
 10
5.941189236111111
 20
-3.745998806423611
 30
0.0
 10
6.001003689236111
 20
-3.788296169704861
 30
0.0
 10
6.040690104166666
 20
-3.85443115234375
 30
0.0
 10
6.061876085069444
 20
-3.888827853732639
 30
0.0
 10
6.076972113715278
 20
-3.934739854600694
 30
0.0
 10
6.085489908854166
 20
-3.99078369140625
 30
0.0
 10
6.094319661458333
 20
-4.049018012152778
 30
0.0
 10
6.098076714409722
 20
-4.114027235243055
 30
0.0
 10
6.098076714409722
 20
-4.208163791232638
 30
0.0
 10
6.098076714409722
 20
-4.269070095486111
 30
0.0
 10
6.095350477430555
 20
-4.325032552083333
 30
0.0
 10
6.0899658203125
 20
-4.374498155381945
 30
0.0
 10
6.084554036458333
 20
-4.424289279513888
 30
0.0
 10
6.076266818576388
 20
-4.468180338541666
 30
0.0
 10
6.065334743923611
 20
-4.504964192708333
 30
0.0
 10
6.038859049479166
 20
-4.592230902777778
 30
0.0
 10
5.987006293402778
 20
-4.652845594618055
 30
0.0
 10
5.911200629340278
 20
-4.685194227430555
 30
0.0
 10
5.911200629340278
 20
-4.685194227430555
 30
0.0
 10
5.903659396701388
 20
-4.687594943576388
 30
0.0
 10
5.903659396701388
 20
-4.687594943576388
 30
0.0
 10
5.871609157986111
 20
-4.699273003472222
 30
0.0
 10
5.836615668402778
 20
-4.708428276909722
 30
0.0
 10
5.7972412109375
 20
-4.715386284722222
 30
0.0
 10
5.769382052951388
 20
-4.720364040798611
 30
0.0
 10
5.739203559027778
 20
-4.723388671875
 30
0.0
 10
5.707533094618055
 20
-4.724392361111111
 30
0.0
 10
5.697021484375
 20
-4.724704318576388
 30
0.0
 10
5.685831705729166
 20
-4.724867078993055
 30
0.0
 10
5.673923068576388
 20
-4.724867078993055
 30
0.0
  0
SPLINE
  5
59
330
54
100
AcDbEntity
  8
Layer 1
370
     0
100
AcDbSpline
210
0.0
220
0.0
230
1.0
 70
    11
 71
     3
 72
    62
 73
    58
 74
     0
 42
0.0000000001
 43
0.0000000001
 12
1.0
 22
0.0
 32
0.0
 13
1.0
 23
0.0
 33
0.0
 40
0.0
 40
0.0
 40
0.0
 40
0.0
 40
1.0
 40
1.0
 40
1.0
 40
2.0
 40
2.0
 40
2.0
 40
3.0
 40
3.0
 40
3.0
 40
4.0
 40
4.0
 40
4.0
 40
5.0
 40
5.0
 40
5.0
 40
6.0
 40
6.0
 40
6.0
 40
7.0
 40
7.0
 40
7.0
 40
8.0
 40
8.0
 40
8.0
 40
9.0
 40
9.0
 40
9.0
 40
10.0
 40
10.0
 40
10.0
 40
11.0
 40
11.0
 40
11.0
 40
12.0
 40
12.0
 40
12.0
 40
13.0
 40
13.0
 40
13.0
 40
14.0
 40
14.0
 40
14.0
 40
15.0
 40
15.0
 40
15.0
 40
16.0
 40
16.0
 40
16.0
 40
17.0
 40
17.0
 40
17.0
 40
18.0
 40
18.0
 40
18.0
 40
19.0
 40
19.0
 40
19.0
 40
19.0
 10
5.405619303385416
 20
-4.576144748263888
 30
0.0
 10
5.455959743923611
 20
-4.576144748263888
 30
0.0
 10
5.504380967881944
 20
-4.577392578125
 30
0.0
 10
5.549533420138888
 20
-4.579847547743055
 30
0.0
 10
5.593221028645833
 20
-4.582275390625
 30
0.0
 10
5.634901258680555
 20
-4.583211263020833
 30
0.0
 10
5.672919379340278
 20
-4.582777235243055
 30
0.0
 10
5.709933810763888
 20
-4.582316080729166
 30
0.0
 10
5.744194878472222
 20
-4.578464084201388
 30
0.0
 10
5.774739583333333
 20
-4.571343315972222
 30
0.0
 10
5.774739583333333
 20
-4.571343315972222
 30
0.0
 10
5.796115451388888
 20
-4.566446940104166
 30
0.0
 10
5.796115451388888
 20
-4.566446940104166
 30
0.0
 10
5.847249348958333
 20
-4.553670247395833
 30
0.0
 10
5.882771809895833
 20
-4.521185980902778
 30
0.0
 10
5.904473198784722
 20
-4.467190212673611
 30
0.0
 10
5.926812065972222
 20
-4.411580403645833
 30
0.0
 10
5.938151041666666
 20
-4.322455512152778
 30
0.0
 10
5.938151041666666
 20
-4.2022705078125
 30
0.0
 10
5.938151041666666
 20
-4.053961859809028
 30
0.0
 10
5.919826931423611
 20
-3.961663140190972
 30
0.0
 10
5.880479600694444
 20
-3.911797417534722
 30
0.0
 10
5.867173936631944
 20
-3.8948974609375
 30
0.0
 10
5.8504638671875
 20
-3.882005479600694
 30
0.0
 10
5.830783420138888
 20
-3.87347412109375
 30
0.0
 10
5.810329861111111
 20
-3.864691840277778
 30
0.0
 10
5.785983615451388
 20
-3.858574761284722
 30
0.0
 10
5.758463541666666
 20
-3.855312771267361
 30
0.0
 10
5.730265299479166
 20
-3.851962619357639
 30
0.0
 10
5.697509765625
 20
-3.850477430555555
 30
0.0
 10
5.660970052083333
 20
-3.850979275173611
 30
0.0
 10
5.623738606770833
 20
-3.85150146484375
 30
0.0
 10
5.581651475694444
 20
-3.851711697048611
 30
0.0
 10
5.534640842013888
 20
-3.851711697048611
 30
0.0
 10
5.534640842013888
 20
-3.851711697048611
 30
0.0
 10
4.991706000434028
 20
-3.851711697048611
 30
0.0
 10
4.991706000434028
 20
-3.851711697048611
 30
0.0
 10
4.991706000434028
 20
-3.851711697048611
 30
0.0
 10
4.991706000434028
 20
-4.580837673611111
 30
0.0
 10
4.991706000434028
 20
-4.580837673611111
 30
0.0
 10
4.991706000434028
 20
-4.580837673611111
 30
0.0
 10
4.996995713975694
 20
-4.580837673611111
 30
0.0
 10
4.996995713975694
 20
-4.580837673611111
 30
0.0
 10
4.996995713975694
 20
-4.580837673611111
 30
0.0
 10
5.147047254774305
 20
-4.582044813368055
 30
0.0
 10
5.147047254774305
 20
-4.582044813368055
 30
0.0
 10
5.1575927734375
 20
-4.582329644097222
 30
0.0
 10
5.168192545572916
 20
-4.582478841145833
 30
0.0
 10
5.1790771484375
 20
-4.582478841145833
 30
0.0
 10
5.1790771484375
 20
-4.582478841145833
 30
0.0
 10
5.179083930121528
 20
-4.582478841145833
 30
0.0
 10
5.179083930121528
 20
-4.582478841145833
 30
0.0
 10
5.2059326171875
 20
-4.582478841145833
 30
0.0
 10
5.234958224826388
 20
-4.581583658854166
 30
0.0
 10
5.265353732638888
 20
-4.579847547743055
 30
0.0
 10
5.309034559461805
 20
-4.577392578125
 30
0.0
 10
5.356221516927083
 20
-4.576144748263888
 30
0.0
 10
5.405619303385416
 20
-4.576144748263888
 30
0.0
  0
HATCH
  5
5A
330
54
100
AcDbEntity
  8
Layer 1
 62
   250
420
  4210753
100
AcDbHatch
 10
0.0
 20
0.0
 30
0.0
210
0.0
220
0.0
230
1.0
  2
SOLID
 70
     1
 71
     0
 91
        2
 92
        1
 93
        1
 72
     4
 94
        3
 73
     0
 74
     1
 95
       62
 96
       58
 40
0.0
 40
0.0
 40
0.0
 40
0.0
 40
1.0
 40
1.0
 40
1.0
 40
2.0
 40
2.0
 40
2.0
 40
3.0
 40
3.0
 40
3.0
 40
4.0
 40
4.0
 40
4.0
 40
5.0
 40
5.0
 40
5.0
 40
6.0
 40
6.0
 40
6.0
 40
7.0
 40
7.0
 40
7.0
 40
8.0
 40
8.0
 40
8.0
 40
9.0
 40
9.0
 40
9.0
 40
10.0
 40
10.0
 40
10.0
 40
11.0
 40
11.0
 40
11.0
 40
12.0
 40
12.0
 40
12.0
 40
13.0
 40
13.0
 40
13.0
 40
14.0
 40
14.0
 40
14.0
 40
15.0
 40
15.0
 40
15.0
 40
16.0
 40
16.0
 40
16.0
 40
17.0
 40
17.0
 40
17.0
 40
18.0
 40
18.0
 40
18.0
 40
19.0
 40
19.0
 40
19.0
 40
19.0
 10
5.673923068576388
 20
-4.724867078993055
 10
5.650051540798611
 20
-4.724867078993055
 10
5.623060438368055
 20
-4.724216037326388
 10
5.593682183159722
 20
-4.722927517361111
 10
5.550198025173611
 20
-4.720933702256944
 10
5.492763943142361
 20
-4.719970703125
 10
5.4180908203125
 20
-4.719970703125
 10
5.350375705295138
 20
-4.719970703125
 10
5.299357096354166
 20
-4.720458984375
 10
5.262125651041666
 20
-4.721449110243055
 10
5.224236382378472
 20
-4.722398546006944
 10
5.191826714409722
 20
-4.722669813368055
 10
5.164788140190972
 20
-4.722181532118055
 10
5.164788140190972
 20
-4.722181532118055
 10
5.154500325520833
 20
-4.721706814236111
 10
5.154500325520833
 20
-4.721706814236111
 10
5.154500325520833
 20
-4.721706814236111
 10
4.834710015190972
 20
-4.721720377604166
 10
4.834710015190972
 20
-4.721720377604166
 10
4.834710015190972
 20
-4.721720377604166
 10
4.834710015190972
 20
-3.710822211371528
 10
4.834710015190972
 20
-3.710822211371528
 10
4.834710015190972
 20
-3.710822211371528
 10
5.537543402777778
 20
-3.710822211371528
 10
5.537543402777778
 20
-3.710822211371528
 10
5.691080729166666
 20
-3.710822211371528
 10
5.800442165798611
 20
-3.716824001736111
 10
5.862589518229166
 20
-3.728658040364583
 10
5.941189236111111
 20
-3.745998806423611
 10
6.001003689236111
 20
-3.788296169704861
 10
6.040690104166666
 20
-3.85443115234375
 10
6.061876085069444
 20
-3.888827853732639
 10
6.076972113715278
 20
-3.934739854600694
 10
6.085489908854166
 20
-3.99078369140625
 10
6.094319661458333
 20
-4.049018012152778
 10
6.098076714409722
 20
-4.114027235243055
 10
6.098076714409722
 20
-4.208163791232638
 10
6.098076714409722
 20
-4.269070095486111
 10
6.095350477430555
 20
-4.325032552083333
 10
6.0899658203125
 20
-4.374498155381945
 10
6.084554036458333
 20
-4.424289279513888
 10
6.076266818576388
 20
-4.468180338541666
 10
6.065334743923611
 20
-4.504964192708333
 10
6.038859049479166
 20
-4.592230902777778
 10
5.987006293402778
 20
-4.652845594618055
 10
5.911200629340278
 20
-4.685194227430555
 10
5.911200629340278
 20
-4.685194227430555
 10
5.903659396701388
 20
-4.687594943576388
 10
5.903659396701388
 20
-4.687594943576388
 10
5.871609157986111
 20
-4.699273003472222
 10
5.836615668402778
 20
-4.708428276909722
 10
5.7972412109375
 20
-4.715386284722222
 10
5.769382052951388
 20
-4.720364040798611
 10
5.739203559027778
 20
-4.723388671875
 10
5.707533094618055
 20
-4.724392361111111
 10
5.697021484375
 20
-4.724704318576388
 10
5.685831705729166
 20
-4.724867078993055
 10
5.673923068576388
 20
-4.724867078993055
 97
        0
 97
        0
 92
        1
 93
        1
 72
     4
 94
        3
 73
     0
 74
     1
 95
       62
 96
       58
 40
0.0
 40
0.0
 40
0.0
 40
0.0
 40
1.0
 40
1.0
 40
1.0
 40
2.0
 40
2.0
 40
2.0
 40
3.0
 40
3.0
 40
3.0
 40
4.0
 40
4.0
 40
4.0
 40
5.0
 40
5.0
 40
5.0
 40
6.0
 40
6.0
 40
6.0
 40
7.0
 40
7.0
 40
7.0
 40
8.0
 40
8.0
 40
8.0
 40
9.0
 40
9.0
 40
9.0
 40
10.0
 40
10.0
 40
10.0
 40
11.0
 40
11.0
 40
11.0
 40
12.0
 40
12.0
 40
12.0
 40
13.0
 40
13.0
 40
13.0
 40
14.0
 40
14.0
 40
14.0
 40
15.0
 40
15.0
 40
15.0
 40
16.0
 40
16.0
 40
16.0
 40
17.0
 40
17.0
 40
17.0
 40
18.0
 40
18.0
 40
18.0
 40
19.0
 40
19.0
 40
19.0
 40
19.0
 10
5.405619303385416
 20
-4.576144748263888
 10
5.455959743923611
 20
-4.576144748263888
 10
5.504380967881944
 20
-4.577392578125
 10
5.549533420138888
 20
-4.579847547743055
 10
5.593221028645833
 20
-4.582275390625
 10
5.634901258680555
 20
-4.583211263020833
 10
5.672919379340278
 20
-4.582777235243055
 10
5.709933810763888
 20
-4.582316080729166
 10
5.744194878472222
 20
-4.578464084201388
 10
5.774739583333333
 20
-4.571343315972222
 10
5.774739583333333
 20
-4.571343315972222
 10
5.796115451388888
 20
-4.566446940104166
 10
5.796115451388888
 20
-4.566446940104166
 10
5.847249348958333
 20
-4.553670247395833
 10
5.882771809895833
 20
-4.521185980902778
 10
5.904473198784722
 20
-4.467190212673611
 10
5.926812065972222
 20
-4.411580403645833
 10
5.938151041666666
 20
-4.322455512152778
 10
5.938151041666666
 20
-4.2022705078125
 10
5.938151041666666
 20
-4.053961859809028
 10
5.919826931423611
 20
-3.961663140190972
 10
5.880479600694444
 20
-3.911797417534722
 10
5.867173936631944
 20
-3.8948974609375
 10
5.8504638671875
 20
-3.882005479600694
 10
5.830783420138888
 20
-3.87347412109375
 10
5.810329861111111
 20
-3.864691840277778
 10
5.785983615451388
 20
-3.858574761284722
 10
5.758463541666666
 20
-3.855312771267361
 10
5.730265299479166
 20
-3.851962619357639
 10
5.697509765625
 20
-3.850477430555555
 10
5.660970052083333
 20
-3.850979275173611
 10
5.623738606770833
 20
-3.85150146484375
 10
5.581651475694444
 20
-3.851711697048611
 10
5.534640842013888
 20
-3.851711697048611
 10
5.534640842013888
 20
-3.851711697048611
 10
4.991706000434028
 20
-3.851711697048611
 10
4.991706000434028
 20
-3.851711697048611
 10
4.991706000434028
 20
-3.851711697048611
 10
4.991706000434028
 20
-4.580837673611111
 10
4.991706000434028
 20
-4.580837673611111
 10
4.991706000434028
 20
-4.580837673611111
 10
4.996995713975694
 20
-4.580837673611111
 10
4.996995713975694
 20
-4.580837673611111
 10
4.996995713975694
 20
-4.580837673611111
 10
5.147047254774305
 20
-4.582044813368055
 10
5.147047254774305
 20
-4.582044813368055
 10
5.1575927734375
 20
-4.582329644097222
 10
5.168192545572916
 20
-4.582478841145833
 10
5.1790771484375
 20
-4.582478841145833
 10
5.1790771484375
 20
-4.582478841145833
 10
5.179083930121528
 20
-4.582478841145833
 10
5.179083930121528
 20
-4.582478841145833
 10
5.2059326171875
 20
-4.582478841145833
 10
5.234958224826388
 20
-4.581583658854166
 10
5.265353732638888
 20
-4.579847547743055
 10
5.309034559461805
 20
-4.577392578125
 10
5.356221516927083
 20
-4.576144748263888
 10
5.405619303385416
 20
-4.576144748263888
 97
        0
 97
        0
 75
     2
 76
     1
 98
        0
  0
ENDBLK
  5
57
330
54
100
AcDbEntity
  8
0
100
AcDbBlockEnd
  0
BLOCK
  5
5D
330
5B
100
AcDbEntity
  8
0
100
AcDbBlockBegin
  2
block 6
 70
     0
 10
0.0
 20
0.0
 30
0.0
  3
block 6
  1

  0
SPLINE
  5
5F
330
5B
100
AcDbEntity
  8
Layer 1
370
     0
100
AcDbSpline
210
0.0
220
0.0
230
1.0
 70
    11
 71
     3
 72
    98
 73
    94
 74
     0
 42
0.0000000001
 43
0.0000000001
 12
1.0
 22
0.0
 32
0.0
 13
1.0
 23
0.0
 33
0.0
 40
0.0
 40
0.0
 40
0.0
 40
0.0
 40
1.0
 40
1.0
 40
1.0
 40
2.0
 40
2.0
 40
2.0
 40
3.0
 40
3.0
 40
3.0
 40
4.0
 40
4.0
 40
4.0
 40
5.0
 40
5.0
 40
5.0
 40
6.0
 40
6.0
 40
6.0
 40
7.0
 40
7.0
 40
7.0
 40
8.0
 40
8.0
 40
8.0
 40
9.0
 40
9.0
 40
9.0
 40
10.0
 40
10.0
 40
10.0
 40
11.0
 40
11.0
 40
11.0
 40
12.0
 40
12.0
 40
12.0
 40
13.0
 40
13.0
 40
13.0
 40
14.0
 40
14.0
 40
14.0
 40
15.0
 40
15.0
 40
15.0
 40
16.0
 40
16.0
 40
16.0
 40
17.0
 40
17.0
 40
17.0
 40
18.0
 40
18.0
 40
18.0
 40
19.0
 40
19.0
 40
19.0
 40
20.0
 40
20.0
 40
20.0
 40
21.0
 40
21.0
 40
21.0
 40
22.0
 40
22.0
 40
22.0
 40
23.0
 40
23.0
 40
23.0
 40
24.0
 40
24.0
 40
24.0
 40
25.0
 40
25.0
 40
25.0
 40
26.0
 40
26.0
 40
26.0
 40
27.0
 40
27.0
 40
27.0
 40
28.0
 40
28.0
 40
28.0
 40
29.0
 40
29.0
 40
29.0
 40
30.0
 40
30.0
 40
30.0
 40
31.0
 40
31.0
 40
31.0
 40
31.0
 10
8.864027235243055
 20
-4.814984766145547
 30
0.0
 10
8.864027235243055
 20
-4.814984766145547
 30
0.0
 10
8.859944661458332
 20
-4.814957639409436
 30
0.0
 10
8.859944661458332
 20
-4.814957639409436
 30
0.0
 10
8.859944661458332
 20
-4.814957639409436
 30
0.0
 10
8.679796006944445
 20
-4.676963932812214
 30
0.0
 10
8.679796006944445
 20
-4.676963932812214
 30
0.0
 10
8.674207899305555
 20
-4.679880056944158
 30
0.0
 10
8.66860622829861
 20
-4.682294336458047
 30
0.0
 10
8.662584092881945
 20
-4.684383095138602
 30
0.0
 10
8.621107313368055
 20
-4.699492687152492
 30
0.0
 10
8.587334526909721
 20
-4.709258312152492
 30
0.0
 10
8.55947536892361
 20
-4.714168251388602
 30
0.0
 10
8.53171115451389
 20
-4.719132444096936
 30
0.0
 10
8.501519097222221
 20
-4.72217063854138
 30
0.0
 10
8.469767252604166
 20
-4.723174327777492
 30
0.0
 10
8.438191731770832
 20
-4.72412376354138
 30
0.0
 10
8.39992947048611
 20
-4.723649045659436
 30
0.0
 10
8.355916341145832
 20
-4.721709484027492
 30
0.0
 10
8.3126220703125
 20
-4.71972923229138
 30
0.0
 10
8.255194769965277
 20
-4.718766233159436
 30
0.0
 10
8.18032497829861
 20
-4.718766233159436
 30
0.0
 10
8.112779405381945
 20
-4.718766233159436
 30
0.0
 10
8.061767578125
 20
-4.719254514409436
 30
0.0
 10
8.024359809027777
 20
-4.720231076909436
 30
0.0
 10
7.986477322048611
 20
-4.72119407604138
 30
0.0
 10
7.9541015625
 20
-4.721451780034436
 30
0.0
 10
7.927029079861111
 20
-4.720977062152492
 30
0.0
 10
7.899427625868055
 20
-4.720434527430269
 30
0.0
 10
7.872884114583333
 20
-4.718671289583047
 30
0.0
 10
7.848090079518341
 20
-4.715728038714992
 30
0.0
 10
7.822048413509542
 20
-4.712662717534436
 30
0.0
 10
7.788899739583333
 20
-4.707183116839992
 30
0.0
 10
7.749593098958333
 20
-4.699438433680269
 30
0.0
 10
7.645209418402778
 20
-4.679012001388602
 30
0.0
 10
7.581366644965278
 20
-4.614219792187214
 30
0.0
 10
7.559868706597221
 20
-4.506852170659436
 30
0.0
 10
7.551988389756944
 20
-4.469512218402492
 30
0.0
 10
7.546481662326388
 20
-4.423234006596936
 30
0.0
 10
7.543497721354166
 20
-4.369441688888602
 30
0.0
 10
7.540703667534721
 20
-4.318009397221936
 30
0.0
 10
7.539116753472221
 20
-4.262999153141398
 30
0.0
 10
7.539116753472221
 20
-4.187593608436537
 30
0.0
 10
7.539116753472221
 20
-4.059874153141398
 30
0.0
 10
7.545993381076388
 20
-3.97356366051987
 30
0.0
 10
7.561414930555555
 20
-3.907733853662231
 30
0.0
 10
7.583957248263888
 20
-3.807351366683065
 30
0.0
 10
7.645846896701388
 20
-3.74706219567612
 30
0.0
 10
7.745347764756944
 20
-3.728643141856676
 30
0.0
 10
7.825018988715278
 20
-3.713886197412231
 30
0.0
 10
7.953111436631944
 20
-3.706399218245565
 30
0.0
 10
8.12607150607639
 20
-3.706399218245565
 30
0.0
 10
8.12607150607639
 20
-3.706399218245565
 30
0.0
 10
8.24636501736111
 20
-3.706399218245565
 30
0.0
 10
8.24636501736111
 20
-3.706399218245565
 30
0.0
 10
8.287543402777777
 20
-3.706399218245565
 30
0.0
 10
8.331312391493055
 20
-3.706894281179593
 30
0.0
 10
8.376478407118055
 20
-3.70787762536362
 30
0.0
 10
8.419542100694445
 20
-3.708867751231676
 30
0.0
 10
8.462158203125
 20
-3.710610644026815
 30
0.0
 10
8.503160264756945
 20
-3.713052050276815
 30
0.0
 10
8.54443359375
 20
-3.71556805505112
 30
0.0
 10
8.581190321180555
 20
-3.719820170936537
 30
0.0
 10
8.6124267578125
 20
-3.72569989098862
 30
0.0
 10
8.679063585069445
 20
-3.737995084130981
 30
0.0
 10
8.73007541232639
 20
-3.771367751231676
 30
0.0
 10
8.763997395833332
 20
-3.82488201989487
 30
0.0
 10
8.78439670138889
 20
-3.857515483436537
 30
0.0
 10
8.799275716145832
 20
-3.905197503835843
 30
0.0
 10
8.80825466579861
 20
-3.966646342811537
 30
0.0
 10
8.81723361545139
 20
-4.02810196347126
 30
0.0
 10
8.821587456597221
 20
-4.11144207848862
 30
0.0
 10
8.821587456597221
 20
-4.221447775103203
 30
0.0
 10
8.821587456597221
 20
-4.288891622759416
 30
0.0
 10
8.819620768229166
 20
-4.331220117708047
 30
0.0
 10
8.815714518229166
 20
-4.382164128124714
 30
0.0
 10
8.81174045138889
 20
-4.433379405902492
 30
0.0
 10
8.805718315972221
 20
-4.476415972742769
 30
0.0
 10
8.79782443576389
 20
-4.510120942360825
 30
0.0
 10
8.79782443576389
 20
-4.510541406770547
 30
0.0
 10
8.79345703125
 20
-4.544097179339992
 30
0.0
 10
8.7774658203125
 20
-4.577978472742769
 30
0.0
 10
8.7774658203125
 20
-4.577978472742769
 30
0.0
 10
8.939643012152777
 20
-4.700672700173325
 30
0.0
 10
8.939643012152777
 20
-4.700672700173325
 30
0.0
 10
8.939643012152777
 20
-4.700672700173325
 30
0.0
 10
8.940863715277777
 20
-4.70361595104138
 30
0.0
 10
8.940863715277777
 20
-4.70361595104138
 30
0.0
 10
8.941663953993055
 20
-4.705541949305269
 30
0.0
 10
8.96023220486111
 20
-4.751236936284436
 30
0.0
 10
8.9381103515625
 20
-4.783192231423325
 30
0.0
 10
8.916734483506945
 20
-4.814103147221936
 30
0.0
 10
8.869371202256945
 20
-4.814984766145547
 30
0.0
 10
8.864027235243055
 20
-4.814984766145547
 30
0.0
  0
SPLINE
  5
60
330
5B
100
AcDbEntity
  8
Layer 1
370
     0
100
AcDbSpline
210
0.0
220
0.0
230
1.0
 70
    11
 71
     3
 72
    74
 73
    70
 74
     0
 42
0.0000000001
 43
0.0000000001
 12
1.0
 22
0.0
 32
0.0
 13
1.0
 23
0.0
 33
0.0
 40
0.0
 40
0.0
 40
0.0
 40
0.0
 40
1.0
 40
1.0
 40
1.0
 40
2.0
 40
2.0
 40
2.0
 40
3.0
 40
3.0
 40
3.0
 40
4.0
 40
4.0
 40
4.0
 40
5.0
 40
5.0
 40
5.0
 40
6.0
 40
6.0
 40
6.0
 40
7.0
 40
7.0
 40
7.0
 40
8.0
 40
8.0
 40
8.0
 40
9.0
 40
9.0
 40
9.0
 40
10.0
 40
10.0
 40
10.0
 40
11.0
 40
11.0
 40
11.0
 40
12.0
 40
12.0
 40
12.0
 40
13.0
 40
13.0
 40
13.0
 40
14.0
 40
14.0
 40
14.0
 40
15.0
 40
15.0
 40
15.0
 40
16.0
 40
16.0
 40
16.0
 40
17.0
 40
17.0
 40
17.0
 40
18.0
 40
18.0
 40
18.0
 40
19.0
 40
19.0
 40
19.0
 40
20.0
 40
20.0
 40
20.0
 40
21.0
 40
21.0
 40
21.0
 40
22.0
 40
22.0
 40
22.0
 40
23.0
 40
23.0
 40
23.0
 40
23.0
 10
8.167860243055555
 20
-4.574940278298325
 30
0.0
 10
8.21811252170139
 20
-4.574940278298325
 30
0.0
 10
8.266533745659721
 20
-4.57617454479138
 30
0.0
 10
8.311767578125
 20
-4.578629514409436
 30
0.0
 10
8.355428059895832
 20
-4.581043793923325
 30
0.0
 10
8.397026909722221
 20
-4.581952539583047
 30
0.0
 10
8.43515353732639
 20
-4.581559201909436
 30
0.0
 10
8.47216796875
 20
-4.581098047395547
 30
0.0
 10
8.506429036458332
 20
-4.577246050867769
 30
0.0
 10
8.536973741319445
 20
-4.570125282638602
 30
0.0
 10
8.570014105902777
 20
-4.562367036110825
 30
0.0
 10
8.59616427951389
 20
-4.55285911510388
 30
0.0
 10
8.616387261284721
 20
-4.531632444096936
 30
0.0
 10
8.633626302083332
 20
-4.513566037846936
 30
0.0
 10
8.65158420138889
 20
-4.45227317760388
 30
0.0
 10
8.65732150607639
 20
-4.429120508333047
 30
0.0
 10
8.660224066840277
 20
-4.400990082985825
 30
0.0
 10
8.662665473090277
 20
-4.367420747048325
 30
0.0
 10
8.664564344618055
 20
-4.329321246180269
 30
0.0
 10
8.66650390625
 20
-4.290150239235825
 30
0.0
 10
8.667494032118055
 20
-4.263134786821953
 30
0.0
 10
8.667494032118055
 20
-4.214082866249037
 30
0.0
 10
8.667494032118055
 20
-4.11016034020737
 30
0.0
 10
8.6632080078125
 20
-4.030088996891398
 30
0.0
 10
8.654405381944445
 20
-3.96929119958237
 30
0.0
 10
8.646280924479166
 20
-3.922619650103204
 30
0.0
 10
8.626519097222221
 20
-3.893377028575426
 30
0.0
 10
8.594007703993055
 20
-3.880213779877509
 30
0.0
 10
8.56338161892361
 20
-3.866860644026815
 30
0.0
 10
8.531751844618055
 20
-3.857766405745565
 30
0.0
 10
8.499742296006945
 20
-3.853059917030287
 30
0.0
 10
8.467027452256945
 20
-3.84825848473862
 30
0.0
 10
8.431952582465277
 20
-3.845593282915704
 30
0.0
 10
8.39548068576389
 20
-3.845138910085843
 30
0.0
 10
8.3587646484375
 20
-3.844589593679593
 30
0.0
 10
8.319688585069445
 20
-3.845335578922648
 30
0.0
 10
8.278645624197148
 20
-3.84728192223862
 30
0.0
 10
8.238240559895832
 20
-3.849241828922648
 30
0.0
 10
8.193047417534721
 20
-3.850238736474731
 30
0.0
 10
8.144341362847221
 20
-3.850238736474731
 30
0.0
 10
7.989963107638888
 20
-3.850238736474731
 30
0.0
 10
7.882839626736111
 20
-3.855121548974731
 30
0.0
 10
7.825968424479166
 20
-3.864751540294176
 30
0.0
 10
7.788547092013888
 20
-3.871126323280287
 30
0.0
 10
7.761040581597221
 20
-3.883075650537231
 30
0.0
 10
7.744208441840278
 20
-3.900274001231676
 30
0.0
 10
7.727376302083333
 20
-3.917540168766398
 30
0.0
 10
7.715589735243055
 20
-3.94530438317612
 30
0.0
 10
7.709201194138081
 20
-3.982793532481676
 30
0.0
 10
7.700398763020833
 20
-4.038335524669176
 30
0.0
 10
7.696099175347221
 20
-4.111164029443481
 30
0.0
 10
7.696099175347221
 20
-4.205293803749037
 30
0.0
 10
7.696099175347221
 20
-4.307880338037194
 30
0.0
 10
7.700520638801814
 20
-4.370024913714992
 30
0.0
 10
7.709228515625
 20
-4.42492942760388
 30
0.0
 10
7.7196178605416
 20
-4.490860959721936
 30
0.0
 10
7.7347412109375
 20
-4.517635048263602
 30
0.0
 10
7.74560546875
 20
-4.528485742708047
 30
0.0
 10
7.764553493923611
 20
-4.547447331249714
 30
0.0
 10
7.787760416666666
 20
-4.560752995312214
 30
0.0
 10
7.814561631944444
 20
-4.568022960589992
 30
0.0
 10
7.842488606770833
 20
-4.575604883333047
 30
0.0
 10
7.874430338541666
 20
-4.579904471006658
 30
0.0
 10
7.909505208333333
 20
-4.580826780034436
 30
0.0
 10
7.945339626736111
 20
-4.581803342534436
 30
0.0
 10
7.984890407986111
 20
-4.58105735729138
 30
0.0
 10
8.027587890625
 20
-4.578629514409436
 30
0.0
 10
8.071356879340277
 20
-4.57617454479138
 30
0.0
 10
8.118543836805555
 20
-4.574940278298325
 30
0.0
 10
8.167860243055555
 20
-4.574940278298325
 30
0.0
  0
HATCH
  5
61
330
5B
100
AcDbEntity
  8
Layer 1
 62
   250
420
  4210753
100
AcDbHatch
 10
0.0
 20
0.0
 30
0.0
210
0.0
220
0.0
230
1.0
  2
SOLID
 70
     1
 71
     0
 91
        2
 92
        1
 93
        1
 72
     4
 94
        3
 73
     0
 74
     1
 95
       98
 96
       94
 40
0.0
 40
0.0
 40
0.0
 40
0.0
 40
1.0
 40
1.0
 40
1.0
 40
2.0
 40
2.0
 40
2.0
 40
3.0
 40
3.0
 40
3.0
 40
4.0
 40
4.0
 40
4.0
 40
5.0
 40
5.0
 40
5.0
 40
6.0
 40
6.0
 40
6.0
 40
7.0
 40
7.0
 40
7.0
 40
8.0
 40
8.0
 40
8.0
 40
9.0
 40
9.0
 40
9.0
 40
10.0
 40
10.0
 40
10.0
 40
11.0
 40
11.0
 40
11.0
 40
12.0
 40
12.0
 40
12.0
 40
13.0
 40
13.0
 40
13.0
 40
14.0
 40
14.0
 40
14.0
 40
15.0
 40
15.0
 40
15.0
 40
16.0
 40
16.0
 40
16.0
 40
17.0
 40
17.0
 40
17.0
 40
18.0
 40
18.0
 40
18.0
 40
19.0
 40
19.0
 40
19.0
 40
20.0
 40
20.0
 40
20.0
 40
21.0
 40
21.0
 40
21.0
 40
22.0
 40
22.0
 40
22.0
 40
23.0
 40
23.0
 40
23.0
 40
24.0
 40
24.0
 40
24.0
 40
25.0
 40
25.0
 40
25.0
 40
26.0
 40
26.0
 40
26.0
 40
27.0
 40
27.0
 40
27.0
 40
28.0
 40
28.0
 40
28.0
 40
29.0
 40
29.0
 40
29.0
 40
30.0
 40
30.0
 40
30.0
 40
31.0
 40
31.0
 40
31.0
 40
31.0
 10
8.864027235243055
 20
-4.814984766145547
 10
8.864027235243055
 20
-4.814984766145547
 10
8.859944661458332
 20
-4.814957639409436
 10
8.859944661458332
 20
-4.814957639409436
 10
8.859944661458332
 20
-4.814957639409436
 10
8.679796006944445
 20
-4.676963932812214
 10
8.679796006944445
 20
-4.676963932812214
 10
8.674207899305555
 20
-4.679880056944158
 10
8.66860622829861
 20
-4.682294336458047
 10
8.662584092881945
 20
-4.684383095138602
 10
8.621107313368055
 20
-4.699492687152492
 10
8.587334526909721
 20
-4.709258312152492
 10
8.55947536892361
 20
-4.714168251388602
 10
8.53171115451389
 20
-4.719132444096936
 10
8.501519097222221
 20
-4.72217063854138
 10
8.469767252604166
 20
-4.723174327777492
 10
8.438191731770832
 20
-4.72412376354138
 10
8.39992947048611
 20
-4.723649045659436
 10
8.355916341145832
 20
-4.721709484027492
 10
8.3126220703125
 20
-4.71972923229138
 10
8.255194769965277
 20
-4.718766233159436
 10
8.18032497829861
 20
-4.718766233159436
 10
8.112779405381945
 20
-4.718766233159436
 10
8.061767578125
 20
-4.719254514409436
 10
8.024359809027777
 20
-4.720231076909436
 10
7.986477322048611
 20
-4.72119407604138
 10
7.9541015625
 20
-4.721451780034436
 10
7.927029079861111
 20
-4.720977062152492
 10
7.899427625868055
 20
-4.720434527430269
 10
7.872884114583333
 20
-4.718671289583047
 10
7.848090079518341
 20
-4.715728038714992
 10
7.822048413509542
 20
-4.712662717534436
 10
7.788899739583333
 20
-4.707183116839992
 10
7.749593098958333
 20
-4.699438433680269
 10
7.645209418402778
 20
-4.679012001388602
 10
7.581366644965278
 20
-4.614219792187214
 10
7.559868706597221
 20
-4.506852170659436
 10
7.551988389756944
 20
-4.469512218402492
 10
7.546481662326388
 20
-4.423234006596936
 10
7.543497721354166
 20
-4.369441688888602
 10
7.540703667534721
 20
-4.318009397221936
 10
7.539116753472221
 20
-4.262999153141398
 10
7.539116753472221
 20
-4.187593608436537
 10
7.539116753472221
 20
-4.059874153141398
 10
7.545993381076388
 20
-3.97356366051987
 10
7.561414930555555
 20
-3.907733853662231
 10
7.583957248263888
 20
-3.807351366683065
 10
7.645846896701388
 20
-3.74706219567612
 10
7.745347764756944
 20
-3.728643141856676
 10
7.825018988715278
 20
-3.713886197412231
 10
7.953111436631944
 20
-3.706399218245565
 10
8.12607150607639
 20
-3.706399218245565
 10
8.12607150607639
 20
-3.706399218245565
 10
8.24636501736111
 20
-3.706399218245565
 10
8.24636501736111
 20
-3.706399218245565
 10
8.287543402777777
 20
-3.706399218245565
 10
8.331312391493055
 20
-3.706894281179593
 10
8.376478407118055
 20
-3.70787762536362
 10
8.419542100694445
 20
-3.708867751231676
 10
8.462158203125
 20
-3.710610644026815
 10
8.503160264756945
 20
-3.713052050276815
 10
8.54443359375
 20
-3.71556805505112
 10
8.581190321180555
 20
-3.719820170936537
 10
8.6124267578125
 20
-3.72569989098862
 10
8.679063585069445
 20
-3.737995084130981
 10
8.73007541232639
 20
-3.771367751231676
 10
8.763997395833332
 20
-3.82488201989487
 10
8.78439670138889
 20
-3.857515483436537
 10
8.799275716145832
 20
-3.905197503835843
 10
8.80825466579861
 20
-3.966646342811537
 10
8.81723361545139
 20
-4.02810196347126
 10
8.821587456597221
 20
-4.11144207848862
 10
8.821587456597221
 20
-4.221447775103203
 10
8.821587456597221
 20
-4.288891622759416
 10
8.819620768229166
 20
-4.331220117708047
 10
8.815714518229166
 20
-4.382164128124714
 10
8.81174045138889
 20
-4.433379405902492
 10
8.805718315972221
 20
-4.476415972742769
 10
8.79782443576389
 20
-4.510120942360825
 10
8.79782443576389
 20
-4.510541406770547
 10
8.79345703125
 20
-4.544097179339992
 10
8.7774658203125
 20
-4.577978472742769
 10
8.7774658203125
 20
-4.577978472742769
 10
8.939643012152777
 20
-4.700672700173325
 10
8.939643012152777
 20
-4.700672700173325
 10
8.939643012152777
 20
-4.700672700173325
 10
8.940863715277777
 20
-4.70361595104138
 10
8.940863715277777
 20
-4.70361595104138
 10
8.941663953993055
 20
-4.705541949305269
 10
8.96023220486111
 20
-4.751236936284436
 10
8.9381103515625
 20
-4.783192231423325
 10
8.916734483506945
 20
-4.814103147221936
 10
8.869371202256945
 20
-4.814984766145547
 10
8.864027235243055
 20
-4.814984766145547
 97
        0
 97
        0
 92
        1
 93
        1
 72
     4
 94
        3
 73
     0
 74
     1
 95
       74
 96
       70
 40
0.0
 40
0.0
 40
0.0
 40
0.0
 40
1.0
 40
1.0
 40
1.0
 40
2.0
 40
2.0
 40
2.0
 40
3.0
 40
3.0
 40
3.0
 40
4.0
 40
4.0
 40
4.0
 40
5.0
 40
5.0
 40
5.0
 40
6.0
 40
6.0
 40
6.0
 40
7.0
 40
7.0
 40
7.0
 40
8.0
 40
8.0
 40
8.0
 40
9.0
 40
9.0
 40
9.0
 40
10.0
 40
10.0
 40
10.0
 40
11.0
 40
11.0
 40
11.0
 40
12.0
 40
12.0
 40
12.0
 40
13.0
 40
13.0
 40
13.0
 40
14.0
 40
14.0
 40
14.0
 40
15.0
 40
15.0
 40
15.0
 40
16.0
 40
16.0
 40
16.0
 40
17.0
 40
17.0
 40
17.0
 40
18.0
 40
18.0
 40
18.0
 40
19.0
 40
19.0
 40
19.0
 40
20.0
 40
20.0
 40
20.0
 40
21.0
 40
21.0
 40
21.0
 40
22.0
 40
22.0
 40
22.0
 40
23.0
 40
23.0
 40
23.0
 40
23.0
 10
8.167860243055555
 20
-4.574940278298325
 10
8.21811252170139
 20
-4.574940278298325
 10
8.266533745659721
 20
-4.57617454479138
 10
8.311767578125
 20
-4.578629514409436
 10
8.355428059895832
 20
-4.581043793923325
 10
8.397026909722221
 20
-4.581952539583047
 10
8.43515353732639
 20
-4.581559201909436
 10
8.47216796875
 20
-4.581098047395547
 10
8.506429036458332
 20
-4.577246050867769
 10
8.536973741319445
 20
-4.570125282638602
 10
8.570014105902777
 20
-4.562367036110825
 10
8.59616427951389
 20
-4.55285911510388
 10
8.616387261284721
 20
-4.531632444096936
 10
8.633626302083332
 20
-4.513566037846936
 10
8.65158420138889
 20
-4.45227317760388
 10
8.65732150607639
 20
-4.429120508333047
 10
8.660224066840277
 20
-4.400990082985825
 10
8.662665473090277
 20
-4.367420747048325
 10
8.664564344618055
 20
-4.329321246180269
 10
8.66650390625
 20
-4.290150239235825
 10
8.667494032118055
 20
-4.263134786821953
 10
8.667494032118055
 20
-4.214082866249037
 10
8.667494032118055
 20
-4.11016034020737
 10
8.6632080078125
 20
-4.030088996891398
 10
8.654405381944445
 20
-3.96929119958237
 10
8.646280924479166
 20
-3.922619650103204
 10
8.626519097222221
 20
-3.893377028575426
 10
8.594007703993055
 20
-3.880213779877509
 10
8.56338161892361
 20
-3.866860644026815
 10
8.531751844618055
 20
-3.857766405745565
 10
8.499742296006945
 20
-3.853059917030287
 10
8.467027452256945
 20
-3.84825848473862
 10
8.431952582465277
 20
-3.845593282915704
 10
8.39548068576389
 20
-3.845138910085843
 10
8.3587646484375
 20
-3.844589593679593
 10
8.319688585069445
 20
-3.845335578922648
 10
8.278645624197148
 20
-3.84728192223862
 10
8.238240559895832
 20
-3.849241828922648
 10
8.193047417534721
 20
-3.850238736474731
 10
8.144341362847221
 20
-3.850238736474731
 10
7.989963107638888
 20
-3.850238736474731
 10
7.882839626736111
 20
-3.855121548974731
 10
7.825968424479166
 20
-3.864751540294176
 10
7.788547092013888
 20
-3.871126323280287
 10
7.761040581597221
 20
-3.883075650537231
 10
7.744208441840278
 20
-3.900274001231676
 10
7.727376302083333
 20
-3.917540168766398
 10
7.715589735243055
 20
-3.94530438317612
 10
7.709201194138081
 20
-3.982793532481676
 10
7.700398763020833
 20
-4.038335524669176
 10
7.696099175347221
 20
-4.111164029443481
 10
7.696099175347221
 20
-4.205293803749037
 10
7.696099175347221
 20
-4.307880338037194
 10
7.700520638801814
 20
-4.370024913714992
 10
7.709228515625
 20
-4.42492942760388
 10
7.7196178605416
 20
-4.490860959721936
 10
7.7347412109375
 20
-4.517635048263602
 10
7.74560546875
 20
-4.528485742708047
 10
7.764553493923611
 20
-4.547447331249714
 10
7.787760416666666
 20
-4.560752995312214
 10
7.814561631944444
 20
-4.568022960589992
 10
7.842488606770833
 20
-4.575604883333047
 10
7.874430338541666
 20
-4.579904471006658
 10
7.909505208333333
 20
-4.580826780034436
 10
7.945339626736111
 20
-4.581803342534436
 10
7.984890407986111
 20
-4.58105735729138
 10
8.027587890625
 20
-4.578629514409436
 10
8.071356879340277
 20
-4.57617454479138
 10
8.118543836805555
 20
-4.574940278298325
 10
8.167860243055555
 20
-4.574940278298325
 97
        0
 97
        0
 75
     2
 76
     1
 98
        0
  0
ENDBLK
  5
5E
330
5B
100
AcDbEntity
  8
0
100
AcDbBlockEnd
  0
ENDSEC
  0
SECTION
  2
ENTITIES
  0
INSERT
  5
42
330
1F
100
AcDbEntity
  8
Layer 1
100
AcDbBlockReference
  2
block 2
 10
0.0
 20
0.0
 30
0.0
  0
INSERT
  5
48
330
1F
100
AcDbEntity
  8
Layer 1
100
AcDbBlockReference
  2
block 3
 10
0.0
 20
0.0
 30
0.0
  0
INSERT
  5
4F
330
1F
100
AcDbEntity
  8
Layer 1
100
AcDbBlockReference
  2
block 4
 10
0.0
 20
0.0
 30
0.0
  0
INSERT
  5
55
330
1F
100
AcDbEntity
  8
Layer 1
100
AcDbBlockReference
  2
block 5
 10
0.0
 20
0.0
 30
0.0
  0
INSERT
  5
5C
330
1F
100
AcDbEntity
  8
Layer 1
100
AcDbBlockReference
  2
block 6
 10
0.0
 20
0.0
 30
0.0
  0
ENDSEC
  0
SECTION
  2
OBJECTS
  0
DICTIONARY
  5
C
330
0
100
AcDbDictionary
281
     1
  3
ACAD_GROUP
350
D
  3
ACAD_LAYOUT
350
1A
  3
ACAD_MATERIAL
350
3B
  3
ACAD_MLEADERSTYLE
350
63
  3
ACAD_MLINESTYLE
350
17
  3
ACAD_PLOTSETTINGS
350
19
  3
ACAD_PLOTSTYLENAME
350
E
  3
ACAD_TABLESTYLE
350
62
  3
ACAD_VISUALSTYLE
350
2A
  0
SUN
  5
3F
330
29
100
AcDbSun
 90
        1
290
     0
 63
     7
421
 16777215
 40
1.0
291
     1
 91
  2455826
 92
 54000000
292
     0
 70
     2
 71
   256
280
     1
  0
DICTIONARY
  5
D
102
{ACAD_REACTORS
330
C
102
}
330
C
100
AcDbDictionary
281
     1
  0
DICTIONARY
  5
1A
102
{ACAD_REACTORS
330
C
102
}
330
C
100
AcDbDictionary
281
     1
  3
Layout1
350
1E
  3
Layout2
350
26
  3
Model
350
22
  0
DICTIONARY
  5
3B
102
{ACAD_REACTORS
330
C
102
}
330
C
100
AcDbDictionary
281
     1
  3
ByBlock
350
3D
  3
ByLayer
350
3C
  3
Global
350
3E
  0
DICTIONARY
  5
63
102
{ACAD_REACTORS
330
C
102
}
330
C
100
AcDbDictionary
281
     1
  0
DICTIONARY
  5
17
102
{ACAD_REACTORS
330
C
102
}
330
C
100
AcDbDictionary
281
     1
  3
Standard
350
18
  0
DICTIONARY
  5
19
102
{ACAD_REACTORS
330
C
102
}
330
C
100
AcDbDictionary
281
     1
  0
ACDBDICTIONARYWDFLT
  5
E
102
{ACAD_REACTORS
330
C
102
}
330
C
100
AcDbDictionary
281
     1
  3
Normal
350
F
100
AcDbDictionaryWithDefault
340
F
  0
DICTIONARY
  5
62
102
{ACAD_REACTORS
330
C
102
}
330
C
100
AcDbDictionary
281
     1
  0
DICTIONARY
  5
2A
102
{ACAD_REACTORS
330
C
102
}
330
C
100
AcDbDictionary
281
     1
  3
2dWireframe
350
2F
  3
3D Hidden
350
31
  3
3dWireframe
350
30
  3
Basic
350
32
  3
Brighten
350
36
  3
ColorChange
350
3A
  3
Conceptual
350
34
  3
Dim
350
35
  3
Facepattern
350
39
  3
Flat
350
2B
  3
FlatWithEdges
350
2C
  3
Gouraud
350
2D
  3
GouraudWithEdges
350
2E
  3
Linepattern
350
38
  3
Realistic
350
33
  3
Thicken
350
37
  0
LAYOUT
  5
1E
102
{ACAD_REACTORS
330
1A
102
}
330
1A
100
AcDbPlotSettings
  1

  2
none_device
  4

  6

 40
0.0
 41
0.0
 42
0.0
 43
0.0
 44
0.0
 45
0.0
 46
0.0
 47
0.0
 48
0.0
 49
0.0
140
0.0
141
0.0
142
1.0
143
1.0
 70
   688
 72
     0
 73
     0
 74
     5
  7

 75
    16
 76
     0
 77
     2
 78
   300
147
1.0
148
0.0
149
0.0
100
AcDbLayout
  1
Layout1
 70
     1
 71
     1
 10
0.0
 20
0.0
 11
12.0
 21
9.0
 12
0.0
 22
0.0
 32
0.0
 14
1.000000000000000E+20
 24
1.000000000000000E+20
 34
1.000000000000000E+20
 15
-1.000000000000000E+20
 25
-1.000000000000000E+20
 35
-1.000000000000000E+20
146
0.0
 13
0.0
 23
0.0
 33
0.0
 16
1.0
 26
0.0
 36
0.0
 17
0.0
 27
1.0
 37
0.0
 76
     0
330
1B
  0
LAYOUT
  5
26
102
{ACAD_REACTORS
330
1A
102
}
330
1A
100
AcDbPlotSettings
  1

  2
none_device
  4

  6

 40
0.0
 41
0.0
 42
0.0
 43
0.0
 44
0.0
 45
0.0
 46
0.0
 47
0.0
 48
0.0
 49
0.0
140
0.0
141
0.0
142
1.0
143
1.0
 70
   688
 72
     0
 73
     0
 74
     5
  7

 75
    16
 76
     0
 77
     2
 78
   300
147
1.0
148
0.0
149
0.0
100
AcDbLayout
  1
Layout2
 70
     1
 71
     2
 10
0.0
 20
0.0
 11
0.0
 21
0.0
 12
0.0
 22
0.0
 32
0.0
 14
0.0
 24
0.0
 34
0.0
 15
0.0
 25
0.0
 35
0.0
146
0.0
 13
0.0
 23
0.0
 33
0.0
 16
1.0
 26
0.0
 36
0.0
 17
0.0
 27
1.0
 37
0.0
 76
     0
330
23
  0
LAYOUT
  5
22
102
{ACAD_REACTORS
330
1A
102
}
330
1A
100
AcDbPlotSettings
  1

  2
none_device
  4

  6

 40
0.0
 41
0.0
 42
0.0
 43
0.0
 44
0.0
 45
0.0
 46
0.0
 47
0.0
 48
0.0
 49
0.0
140
0.0
141
0.0
142
1.0
143
1.0
 70
  1712
 72
     0
 73
     0
 74
     0
  7

 75
     0
 76
     0
 77
     2
 78
   300
147
1.0
148
0.0
149
0.0
100
AcDbLayout
  1
Model
 70
     1
 71
     0
 10
0.0
 20
0.0
 11
12.0
 21
9.0
 12
0.0
 22
0.0
 32
0.0
 14
1.000000000000000E+20
 24
1.000000000000000E+20
 34
1.000000000000000E+20
 15
-1.000000000000000E+20
 25
-1.000000000000000E+20
 35
-1.000000000000000E+20
146
0.0
 13
0.0
 23
0.0
 33
0.0
 16
1.0
 26
0.0
 36
0.0
 17
0.0
 27
1.0
 37
0.0
 76
     0
330
1F
331
29
  0
MATERIAL
  5
3D
102
{ACAD_REACTORS
330
3B
102
}
330
3B
100
AcDbMaterial
  1
ByBlock
 72
     1
 94
      127
  0
MATERIAL
  5
3C
102
{ACAD_REACTORS
330
3B
102
}
330
3B
100
AcDbMaterial
  1
ByLayer
 72
     1
 94
      127
  0
MATERIAL
  5
3E
102
{ACAD_REACTORS
330
3B
102
}
330
3B
100
AcDbMaterial
  1
Global
 72
     1
 94
      127
  0
MLINESTYLE
  5
18
102
{ACAD_REACTORS
330
17
102
}
330
17
100
AcDbMlineStyle
  2
Standard
 70
     0
  3

 62
   256
 51
90.0
 52
90.0
 71
     2
 49
0.5
 62
   256
  6
BYLAYER
 49
-0.5
 62
   256
  6
BYLAYER
  0
ACDBPLACEHOLDER
  5
F
102
{ACAD_REACTORS
330
E
102
}
330
E
  0
VISUALSTYLE
  5
2F
102
{ACAD_REACTORS
330
2A
102
}
330
2A
100
AcDbVisualStyle
  2
2dWireframe
 70
     4
177
     2
291
     0
 71
     0
176
     1
 72
     2
176
     1
 73
     0
176
     1
 90
        0
176
     1
 40
-0.6
176
     1
 41
-30.0
176
     1
 62
     5
 63
     7
421
 16777215
176
     1
 74
     1
176
     1
 91
        4
176
     1
 64
     7
176
     1
 65
   257
176
     1
 75
     1
176
     1
175
     1
176
     1
 42
1.0
176
     1
 92
        0
176
     1
 66
   257
176
     1
 43
1.0
176
     1
 76
     1
176
     1
 77
     6
176
     1
 78
     2
176
     1
 67
     7
176
     1
 79
     5
176
     1
170
     0
176
     1
171
     0
176
     1
290
     0
176
     1
 93
        1
176
     1
 44
0.0
176
     1
173
     0
176
     1
  0
VISUALSTYLE
  5
31
102
{ACAD_REACTORS
330
2A
102
}
330
2A
100
AcDbVisualStyle
  2
3D Hidden
 70
     6
177
     2
291
     0
 71
     1
176
     1
 72
     2
176
     1
 73
     2
176
     1
 90
        0
176
     1
 40
-0.6
176
     1
 41
-30.0
176
     1
 62
     5
 63
     7
421
 16777215
176
     1
 74
     2
176
     1
 91
        2
176
     1
 64
     7
176
     1
 65
   257
176
     1
 75
     2
176
     1
175
     1
176
     1
 42
40.0
176
     1
 92
        0
176
     1
 66
   257
176
     1
 43
1.0
176
     1
 76
     1
176
     1
 77
     6
176
     1
 78
     2
176
     1
 67
     7
176
     1
 79
     3
176
     1
170
     0
176
     1
171
     0
176
     1
290
     0
176
     1
 93
        1
176
     1
 44
0.0
176
     1
173
     0
176
     1
  0
VISUALSTYLE
  5
30
102
{ACAD_REACTORS
330
2A
102
}
330
2A
100
AcDbVisualStyle
  2
3dWireframe
 70
     5
177
     2
291
     0
 71
     0
176
     1
 72
     2
176
     1
 73
     0
176
     1
 90
        0
176
     1
 40
-0.6
176
     1
 41
-30.0
176
     1
 62
     5
 63
     7
421
 16777215
176
     1
 74
     1
176
     1
 91
        4
176
     1
 64
     7
176
     1
 65
   257
176
     1
 75
     1
176
     1
175
     1
176
     1
 42
1.0
176
     1
 92
        0
176
     1
 66
   257
176
     1
 43
1.0
176
     1
 76
     1
176
     1
 77
     6
176
     1
 78
     2
176
     1
 67
     7
176
     1
 79
     5
176
     1
170
     0
176
     1
171
     0
176
     1
290
     0
176
     1
 93
        1
176
     1
 44
0.0
176
     1
173
     0
176
     1
  0
VISUALSTYLE
  5
32
102
{ACAD_REACTORS
330
2A
102
}
330
2A
100
AcDbVisualStyle
  2
Basic
 70
     7
177
     2
291
     1
 71
     1
176
     1
 72
     0
176
     1
 73
     1
176
     1
 90
        0
176
     1
 40
-0.6
176
     1
 41
-30.0
176
     1
 62
     5
 63
     7
421
 16777215
176
     1
 74
     0
176
     1
 91
        4
176
     1
 64
     7
176
     1
 65
   257
176
     1
 75
     1
176
     1
175
     1
176
     1
 42
1.0
176
     1
 92
        8
176
     1
 66
     7
176
     1
 43
1.0
176
     1
 76
     1
176
     1
 77
     6
176
     1
 78
     2
176
     1
 67
     7
176
     1
 79
     5
176
     1
170
     0
176
     1
171
     0
176
     1
290
     0
176
     1
 93
        1
176
     1
 44
0.0
176
     1
173
     0
176
     1
  0
VISUALSTYLE
  5
36
102
{ACAD_REACTORS
330
2A
102
}
330
2A
100
AcDbVisualStyle
  2
Brighten
 70
    12
177
     2
291
     1
 71
     2
176
     1
 72
     2
176
     1
 73
     0
176
     1
 90
        0
176
     1
 40
-0.6
176
     1
 41
-30.0
176
     1
 62
     5
 63
     7
421
 16777215
176
     1
 74
     1
176
     1
 91
        4
176
     1
 64
     7
176
     1
 65
   257
176
     1
 75
     1
176
     1
175
     1
176
     1
 42
1.0
176
     1
 92
        8
176
     1
 66
     7
176
     1
 43
1.0
176
     1
 76
     1
176
     1
 77
     6
176
     1
 78
     2
176
     1
 67
     7
176
     1
 79
     5
176
     1
170
     0
176
     1
171
     0
176
     1
290
     0
176
     1
 93
        1
176
     1
 44
50.0
176
     1
173
     0
176
     1
  0
VISUALSTYLE
  5
3A
102
{ACAD_REACTORS
330
2A
102
}
330
2A
100
AcDbVisualStyle
  2
ColorChange
 70
    16
177
     2
291
     1
 71
     2
176
     1
 72
     2
176
     1
 73
     3
176
     1
 90
        0
176
     1
 40
-0.6
176
     1
 41
-30.0
176
     1
 62
     5
 63
     8
421
  8421504
176
     1
 74
     1
176
     1
 91
        4
176
     1
 64
     7
176
     1
 65
   257
176
     1
 75
     1
176
     1
175
     1
176
     1
 42
1.0
176
     1
 92
        8
176
     1
 66
     8
424
  8421504
176
     1
 43
1.0
176
     1
 76
     1
176
     1
 77
     6
176
     1
 78
     2
176
     1
 67
     7
176
     1
 79
     5
176
     1
170
     0
176
     1
171
     0
176
     1
290
     0
176
     1
 93
        1
176
     1
 44
0.0
176
     1
173
     0
176
     1
  0
VISUALSTYLE
  5
34
102
{ACAD_REACTORS
330
2A
102
}
330
2A
100
AcDbVisualStyle
  2
Conceptual
 70
     9
177
     2
291
     0
 71
     3
176
     1
 72
     2
176
     1
 73
     0
176
     1
 90
        0
176
     1
 40
-0.6
176
     1
 41
-30.0
176
     1
 62
     5
 63
     7
421
 16777215
176
     1
 74
     2
176
     1
 91
        2
176
     1
 64
     7
176
     1
 65
   257
176
     1
 75
     1
176
     1
175
     1
176
     1
 42
40.0
176
     1
 92
        8
176
     1
 66
     7
176
     1
 43
1.0
176
     1
 76
     1
176
     1
 77
     6
176
     1
 78
     2
176
     1
 67
     7
176
     1
 79
     3
176
     1
170
     0
176
     1
171
     0
176
     1
290
     0
176
     1
 93
        1
176
     1
 44
0.0
176
     1
173
     0
176
     1
  0
VISUALSTYLE
  5
35
102
{ACAD_REACTORS
330
2A
102
}
330
2A
100
AcDbVisualStyle
  2
Dim
 70
    11
177
     2
291
     1
 71
     2
176
     1
 72
     2
176
     1
 73
     0
176
     1
 90
        0
176
     1
 40
-0.6
176
     1
 41
-30.0
176
     1
 62
     5
 63
     7
421
 16777215
176
     1
 74
     1
176
     1
 91
        4
176
     1
 64
     7
176
     1
 65
   257
176
     1
 75
     1
176
     1
175
     1
176
     1
 42
1.0
176
     1
 92
        8
176
     1
 66
     7
176
     1
 43
1.0
176
     1
 76
     1
176
     1
 77
     6
176
     1
 78
     2
176
     1
 67
     7
176
     1
 79
     5
176
     1
170
     0
176
     1
171
     0
176
     1
290
     0
176
     1
 93
        1
176
     1
 44
-50.0
176
     1
173
     0
176
     1
  0
VISUALSTYLE
  5
39
102
{ACAD_REACTORS
330
2A
102
}
330
2A
100
AcDbVisualStyle
  2
Facepattern
 70
    15
177
     2
291
     1
 71
     2
176
     1
 72
     2
176
     1
 73
     0
176
     1
 90
        0
176
     1
 40
-0.6
176
     1
 41
-30.0
176
     1
 62
     5
 63
     7
421
 16777215
176
     1
 74
     1
176
     1
 91
        4
176
     1
 64
     7
176
     1
 65
   257
176
     1
 75
     1
176
     1
175
     1
176
     1
 42
1.0
176
     1
 92
        8
176
     1
 66
     7
176
     1
 43
1.0
176
     1
 76
     1
176
     1
 77
     6
176
     1
 78
     2
176
     1
 67
     7
176
     1
 79
     5
176
     1
170
     0
176
     1
171
     0
176
     1
290
     0
176
     1
 93
        1
176
     1
 44
0.0
176
     1
173
     0
176
     1
  0
VISUALSTYLE
  5
2B
102
{ACAD_REACTORS
330
2A
102
}
330
2A
100
AcDbVisualStyle
  2
Flat
 70
     0
177
     2
291
     1
 71
     2
176
     1
 72
     1
176
     1
 73
     1
176
     1
 90
        2
176
     1
 40
-0.6
176
     1
 41
30.0
176
     1
 62
     5
 63
     7
421
 16777215
176
     1
 74
     0
176
     1
 91
        4
176
     1
 64
     7
176
     1
 65
   257
176
     1
 75
     1
176
     1
175
     1
176
     1
 42
1.0
176
     1
 92
        8
176
     1
 66
     7
176
     1
 43
1.0
176
     1
 76
     1
176
     1
 77
     6
176
     1
 78
     2
176
     1
 67
     7
176
     1
 79
     5
176
     1
170
     0
176
     1
171
     0
176
     1
290
     0
176
     1
 93
       13
176
     1
 44
0.0
176
     1
173
     0
176
     1
  0
VISUALSTYLE
  5
2C
102
{ACAD_REACTORS
330
2A
102
}
330
2A
100
AcDbVisualStyle
  2
FlatWithEdges
 70
     1
177
     2
291
     1
 71
     2
176
     1
 72
     1
176
     1
 73
     1
176
     1
 90
        2
176
     1
 40
-0.6
176
     1
 41
30.0
176
     1
 62
     5
 63
     7
421
 16777215
176
     1
 74
     1
176
     1
 91
        4
176
     1
 64
     7
176
     1
 65
   257
176
     1
 75
     1
176
     1
175
     1
176
     1
 42
1.0
176
     1
 92
        0
176
     1
 66
   257
176
     1
 43
1.0
176
     1
 76
     1
176
     1
 77
     6
176
     1
 78
     2
176
     1
 67
     7
176
     1
 79
     5
176
     1
170
     0
176
     1
171
     0
176
     1
290
     0
176
     1
 93
       13
176
     1
 44
0.0
176
     1
173
     0
176
     1
  0
VISUALSTYLE
  5
2D
102
{ACAD_REACTORS
330
2A
102
}
330
2A
100
AcDbVisualStyle
  2
Gouraud
 70
     2
177
     2
291
     1
 71
     2
176
     1
 72
     2
176
     1
 73
     1
176
     1
 90
        2
176
     1
 40
-0.6
176
     1
 41
30.0
176
     1
 62
     5
 63
     7
421
 16777215
176
     1
 74
     0
176
     1
 91
        4
176
     1
 64
     7
176
     1
 65
   257
176
     1
 75
     1
176
     1
175
     1
176
     1
 42
1.0
176
     1
 92
        0
176
     1
 66
     7
176
     1
 43
1.0
176
     1
 76
     1
176
     1
 77
     6
176
     1
 78
     2
176
     1
 67
     7
176
     1
 79
     5
176
     1
170
     0
176
     1
171
     0
176
     1
290
     0
176
     1
 93
       13
176
     1
 44
0.0
176
     1
173
     0
176
     1
  0
VISUALSTYLE
  5
2E
102
{ACAD_REACTORS
330
2A
102
}
330
2A
100
AcDbVisualStyle
  2
GouraudWithEdges
 70
     3
177
     2
291
     1
 71
     2
176
     1
 72
     2
176
     1
 73
     1
176
     1
 90
        2
176
     1
 40
-0.6
176
     1
 41
30.0
176
     1
 62
     5
 63
     7
421
 16777215
176
     1
 74
     1
176
     1
 91
        4
176
     1
 64
     7
176
     1
 65
   257
176
     1
 75
     1
176
     1
175
     1
176
     1
 42
1.0
176
     1
 92
        0
176
     1
 66
   257
176
     1
 43
1.0
176
     1
 76
     1
176
     1
 77
     6
176
     1
 78
     2
176
     1
 67
     7
176
     1
 79
     5
176
     1
170
     0
176
     1
171
     0
176
     1
290
     0
176
     1
 93
       13
176
     1
 44
0.0
176
     1
173
     0
176
     1
  0
VISUALSTYLE
  5
38
102
{ACAD_REACTORS
330
2A
102
}
330
2A
100
AcDbVisualStyle
  2
Linepattern
 70
    14
177
     2
291
     1
 71
     2
176
     1
 72
     2
176
     1
 73
     0
176
     1
 90
        0
176
     1
 40
-0.6
176
     1
 41
-30.0
176
     1
 62
     5
 63
     7
421
 16777215
176
     1
 74
     1
176
     1
 91
        4
176
     1
 64
     7
176
     1
 65
   257
176
     1
 75
     7
176
     1
175
     7
176
     1
 42
1.0
176
     1
 92
        8
176
     1
 66
     7
176
     1
 43
1.0
176
     1
 76
     1
176
     1
 77
     6
176
     1
 78
     2
176
     1
 67
     7
176
     1
 79
     5
176
     1
170
     0
176
     1
171
     0
176
     1
290
     0
176
     1
 93
        1
176
     1
 44
0.0
176
     1
173
     0
176
     1
  0
VISUALSTYLE
  5
33
102
{ACAD_REACTORS
330
2A
102
}
330
2A
100
AcDbVisualStyle
  2
Realistic
 70
     8
177
     2
291
     0
 71
     2
176
     1
 72
     2
176
     1
 73
     0
176
     1
 90
        0
176
     1
 40
-0.6
176
     1
 41
-30.0
176
     1
 62
     5
 63
     7
421
 16777215
176
     1
 74
     1
176
     1
 91
        0
176
     1
 64
     7
176
     1
 65
   257
176
     1
 75
     1
176
     1
175
     1
176
     1
 42
1.0
176
     1
 92
        8
176
     1
 66
     8
424
  7895160
176
     1
 43
1.0
176
     1
 76
     1
176
     1
 77
     6
176
     1
 78
     2
176
     1
 67
     7
176
     1
 79
     5
176
     1
170
     0
176
     1
171
     0
176
     1
290
     0
176
     1
 93
       13
176
     1
 44
0.0
176
     1
173
     0
176
     1
  0
VISUALSTYLE
  5
37
102
{ACAD_REACTORS
330
2A
102
}
330
2A
100
AcDbVisualStyle
  2
Thicken
 70
    13
177
     2
291
     1
 71
     2
176
     1
 72
     2
176
     1
 73
     0
176
     1
 90
        0
176
     1
 40
-0.6
176
     1
 41
-30.0
176
     1
 62
     5
 63
     7
421
 16777215
176
     1
 74
     1
176
     1
 91
        4
176
     1
 64
     7
176
     1
 65
   257
176
     1
 75
     1
176
     1
175
     1
176
     1
 42
1.0
176
     1
 92
       12
176
     1
 66
     7
176
     1
 43
1.0
176
     1
 76
     1
176
     1
 77
     6
176
     1
 78
     2
176
     1
 67
     7
176
     1
 79
     5
176
     1
170
     0
176
     1
171
     0
176
     1
290
     0
176
     1
 93
        1
176
     1
 44
0.0
176
     1
173
     0
176
     1
  0
ENDSEC
  0
EOF
