  0
SECTION
  2
HEADER
  9
$ACADVER
  1
AC1024
  9
$ACADMAINTVER
 70
     6
  9
$DWGCODEPAGE
  3
ANSI_1252
  9
$INSBASE
 10
0.0
 20
0.0
 30
0.0
  9
$EXTMIN
 10
1.000000000000000E+20
 20
1.000000000000000E+20
 30
1.000000000000000E+20
  9
$EXTMAX
 10
-1.000000000000000E+20
 20
-1.000000000000000E+20
 30
-1.000000000000000E+20
  9
$LIMMIN
 10
0.0
 20
0.0
  9
$LIMMAX
 10
12.0
 20
9.0
  9
$ORTHOMODE
 70
     0
  9
$REGENMODE
 70
     1
  9
$FILLMODE
 70
     1
  9
$QTEXTMODE
 70
     0
  9
$MIRRTEXT
 70
     1
  9
$LTSCALE
 40
1.0
  9
$ATTMODE
 70
     1
  9
$TEXTSIZE
 40
0.2
  9
$TRACEWID
 40
0.05
  9
$TEXTSTYLE
  7
Standard
  9
$CLAYER
  8
0
  9
$CELTYPE
  6
ByLayer
  9
$CECOLOR
 62
   256
  9
$CELTSCALE
 40
1.0
  9
$DISPSILH
 70
     0
  9
$DIMSCALE
 40
1.0
  9
$DIMASZ
 40
0.18
  9
$DIMEXO
 40
0.0625
  9
$DIMDLI
 40
0.38
  9
$DIMRND
 40
0.0
  9
$DIMDLE
 40
0.0
  9
$DIMEXE
 40
0.18
  9
$DIMTP
 40
0.0
  9
$DIMTM
 40
0.0
  9
$DIMTXT
 40
0.18
  9
$DIMCEN
 40
0.09
  9
$DIMTSZ
 40
0.0
  9
$DIMTOL
 70
     0
  9
$DIMLIM
 70
     0
  9
$DIMTIH
 70
     1
  9
$DIMTOH
 70
     1
  9
$DIMSE1
 70
     0
  9
$DIMSE2
 70
     0
  9
$DIMTAD
 70
     0
  9
$DIMZIN
 70
     0
  9
$DIMBLK
  1

  9
$DIMASO
 70
     1
  9
$DIMSHO
 70
     1
  9
$DIMPOST
  1

  9
$DIMAPOST
  1

  9
$DIMALT
 70
     0
  9
$DIMALTD
 70
     2
  9
$DIMALTF
 40
25.4
  9
$DIMLFAC
 40
1.0
  9
$DIMTOFL
 70
     0
  9
$DIMTVP
 40
0.0
  9
$DIMTIX
 70
     0
  9
$DIMSOXD
 70
     0
  9
$DIMSAH
 70
     0
  9
$DIMBLK1
  1

  9
$DIMBLK2
  1

  9
$DIMSTYLE
  2
Standard
  9
$DIMCLRD
 70
     0
  9
$DIMCLRE
 70
     0
  9
$DIMCLRT
 70
     0
  9
$DIMTFAC
 40
1.0
  9
$DIMGAP
 40
0.09
  9
$DIMJUST
 70
     0
  9
$DIMSD1
 70
     0
  9
$DIMSD2
 70
     0
  9
$DIMTOLJ
 70
     1
  9
$DIMTZIN
 70
     0
  9
$DIMALTZ
 70
     0
  9
$DIMALTTZ
 70
     0
  9
$DIMUPT
 70
     0
  9
$DIMDEC
 70
     4
  9
$DIMTDEC
 70
     4
  9
$DIMALTU
 70
     2
  9
$DIMALTTD
 70
     2
  9
$DIMTXSTY
  7
Standard
  9
$DIMAUNIT
 70
     0
  9
$DIMADEC
 70
     0
  9
$DIMALTRND
 40
0.0
  9
$DIMAZIN
 70
     0
  9
$DIMDSEP
 70
    46
  9
$DIMATFIT
 70
     3
  9
$DIMFRAC
 70
     0
  9
$DIMLDRBLK
  1

  9
$DIMLUNIT
 70
     2
  9
$DIMLWD
 70
    -2
  9
$DIMLWE
 70
    -2
  9
$DIMTMOVE
 70
     0
  9
$DIMFXL
 40
1.0
  9
$DIMFXLON
 70
     0
  9
$DIMJOGANG
 40
0.7853981633974483
  9
$DIMTFILL
 70
     0
  9
$DIMTFILLCLR
 70
     0
  9
$DIMARCSYM
 70
     0
  9
$DIMLTYPE
  6

  9
$DIMLTEX1
  6

  9
$DIMLTEX2
  6

  9
$DIMTXTDIRECTION
 70
     0
  9
$LUNITS
 70
     2
  9
$LUPREC
 70
     4
  9
$SKETCHINC
 40
0.1
  9
$FILLETRAD
 40
0.5
  9
$AUNITS
 70
     0
  9
$AUPREC
 70
     0
  9
$MENU
  1
.
  9
$ELEVATION
 40
0.0
  9
$PELEVATION
 40
0.0
  9
$THICKNESS
 40
0.0
  9
$LIMCHECK
 70
     0
  9
$CHAMFERA
 40
0.5
  9
$CHAMFERB
 40
0.5
  9
$CHAMFERC
 40
1.0
  9
$CHAMFERD
 40
0.0
  9
$SKPOLY
 70
     0
  9
$TDCREATE
 40
2458487.596835035
  9
$TDUCREATE
 40
2458487.805168368
  9
$TDUPDATE
 40
2458487.596835081
  9
$TDUUPDATE
 40
2458487.805168414
  9
$TDINDWG
 40
0.0000000116
  9
$TDUSRTIMER
 40
0.0000000116
  9
$USRTIMER
 70
     1
  9
$ANGBASE
 50
0.0
  9
$ANGDIR
 70
     0
  9
$PDMODE
 70
     0
  9
$PDSIZE
 40
0.0
  9
$PLINEWID
 40
0.0
  9
$SPLFRAME
 70
     0
  9
$SPLINETYPE
 70
     6
  9
$SPLINESEGS
 70
     8
  9
$HANDSEED
  5
85
  9
$SURFTAB1
 70
     6
  9
$SURFTAB2
 70
     6
  9
$SURFTYPE
 70
     6
  9
$SURFU
 70
     6
  9
$SURFV
 70
     6
  9
$UCSBASE
  2

  9
$UCSNAME
  2

  9
$UCSORG
 10
0.0
 20
0.0
 30
0.0
  9
$UCSXDIR
 10
1.0
 20
0.0
 30
0.0
  9
$UCSYDIR
 10
0.0
 20
1.0
 30
0.0
  9
$UCSORTHOREF
  2

  9
$UCSORTHOVIEW
 70
     0
  9
$UCSORGTOP
 10
0.0
 20
0.0
 30
0.0
  9
$UCSORGBOTTOM
 10
0.0
 20
0.0
 30
0.0
  9
$UCSORGLEFT
 10
0.0
 20
0.0
 30
0.0
  9
$UCSORGRIGHT
 10
0.0
 20
0.0
 30
0.0
  9
$UCSORGFRONT
 10
0.0
 20
0.0
 30
0.0
  9
$UCSORGBACK
 10
0.0
 20
0.0
 30
0.0
  9
$PUCSBASE
  2

  9
$PUCSNAME
  2

  9
$PUCSORG
 10
0.0
 20
0.0
 30
0.0
  9
$PUCSXDIR
 10
1.0
 20
0.0
 30
0.0
  9
$PUCSYDIR
 10
0.0
 20
1.0
 30
0.0
  9
$PUCSORTHOREF
  2

  9
$PUCSORTHOVIEW
 70
     0
  9
$PUCSORGTOP
 10
0.0
 20
0.0
 30
0.0
  9
$PUCSORGBOTTOM
 10
0.0
 20
0.0
 30
0.0
  9
$PUCSORGLEFT
 10
0.0
 20
0.0
 30
0.0
  9
$PUCSORGRIGHT
 10
0.0
 20
0.0
 30
0.0
  9
$PUCSORGFRONT
 10
0.0
 20
0.0
 30
0.0
  9
$PUCSORGBACK
 10
0.0
 20
0.0
 30
0.0
  9
$USERI1
 70
     0
  9
$USERI2
 70
     0
  9
$USERI3
 70
     0
  9
$USERI4
 70
     0
  9
$USERI5
 70
     0
  9
$USERR1
 40
0.0
  9
$USERR2
 40
0.0
  9
$USERR3
 40
0.0
  9
$USERR4
 40
0.0
  9
$USERR5
 40
0.0
  9
$WORLDVIEW
 70
     1
  9
$SHADEDGE
 70
     3
  9
$SHADEDIF
 70
    70
  9
$TILEMODE
 70
     1
  9
$MAXACTVP
 70
    64
  9
$PINSBASE
 10
0.0
 20
0.0
 30
0.0
  9
$PLIMCHECK
 70
     0
  9
$PEXTMIN
 10
1.000000000000000E+20
 20
1.000000000000000E+20
 30
1.000000000000000E+20
  9
$PEXTMAX
 10
-1.000000000000000E+20
 20
-1.000000000000000E+20
 30
-1.000000000000000E+20
  9
$PLIMMIN
 10
0.0
 20
0.0
  9
$PLIMMAX
 10
12.0
 20
9.0
  9
$UNITMODE
 70
     0
  9
$VISRETAIN
 70
     1
  9
$PLINEGEN
 70
     0
  9
$PSLTSCALE
 70
     1
  9
$TREEDEPTH
 70
  3020
  9
$CMLSTYLE
  2
Standard
  9
$CMLJUST
 70
     0
  9
$CMLSCALE
 40
1.0
  9
$PROXYGRAPHICS
 70
     1
  9
$MEASUREMENT
 70
     0
  9
$CELWEIGHT
370
    -1
  9
$ENDCAPS
280
     0
  9
$JOINSTYLE
280
     0
  9
$LWDISPLAY
290
     1
  9
$INSUNITS
 70
     1
  9
$HYPERLINKBASE
  1

  9
$STYLESHEET
  1

  9
$XEDIT
290
     1
  9
$CEPSNTYPE
380
     0
  9
$PSTYLEMODE
290
     1
  9
$FINGERPRINTGUID
  2
{4CC13456-7EA0-4856-BA2F-D43E2638C706}
  9
$VERSIONGUID
  2
{FAEB1C32-E019-11D5-929B-00C0DF256EC4}
  9
$EXTNAMES
290
     1
  9
$PSVPSCALE
 40
0.0
  9
$OLESTARTUP
290
     0
  9
$SORTENTS
280
   127
  9
$INDEXCTL
280
     0
  9
$HIDETEXT
280
     1
  9
$XCLIPFRAME
280
     2
  9
$HALOGAP
280
     0
  9
$OBSCOLOR
 70
   257
  9
$OBSLTYPE
280
     0
  9
$INTERSECTIONDISPLAY
280
     0
  9
$INTERSECTIONCOLOR
 70
   257
  9
$DIMASSOC
280
     2
  9
$PROJECTNAME
  1

  9
$CAMERADISPLAY
290
     0
  9
$LENSLENGTH
 40
50.0
  9
$CAMERAHEIGHT
 40
0.0
  9
$STEPSPERSEC
 40
2.0
  9
$STEPSIZE
 40
6.0
  9
$3DDWFPREC
 40
2.0
  9
$PSOLWIDTH
 40
0.25
  9
$PSOLHEIGHT
 40
4.0
  9
$LOFTANG1
 40
1.570796326794897
  9
$LOFTANG2
 40
1.570796326794897
  9
$LOFTMAG1
 40
0.0
  9
$LOFTMAG2
 40
0.0
  9
$LOFTPARAM
 70
     7
  9
$LOFTNORMALS
280
     1
  9
$LATITUDE
 40
37.795
  9
$LONGITUDE
 40
-122.394
  9
$NORTHDIRECTION
 40
0.0
  9
$TIMEZONE
 70
 -8000
  9
$LIGHTGLYPHDISPLAY
280
     1
  9
$TILEMODELIGHTSYNCH
280
     1
  9
$CMATERIAL
347
3C
  9
$SOLIDHIST
280
     1
  9
$SHOWHIST
280
     1
  9
$DWFFRAME
280
     2
  9
$DGNFRAME
280
     2
  9
$REALWORLDSCALE
290
     1
  9
$INTERFERECOLOR
 62
   256
  9
$CSHADOW
280
     0
  9
$SHADOWPLANELOCATION
 40
0.0
  0
ENDSEC
  0
SECTION
  2
CLASSES
  0
CLASS
  1
ACDBDICTIONARYWDFLT
  2
AcDbDictionaryWithDefault
  3
ObjectDBX Classes
 90
        0
 91
        4
280
     0
281
     0
  0
CLASS
  1
VISUALSTYLE
  2
AcDbVisualStyle
  3
ObjectDBX Classes
 90
     4095
 91
        4
280
     0
281
     0
  0
CLASS
  1
MATERIAL
  2
AcDbMaterial
  3
ObjectDBX Classes
 90
     1153
 91
        4
280
     0
281
     0
  0
CLASS
  1
SUN
  2
AcDbSun
  3
SCENEOE
 90
     1024
 91
        4
280
     0
281
     0
  0
ENDSEC
  0
SECTION
  2
TABLES
  0
TABLE
  2
VPORT
  5
8
330
0
100
AcDbSymbolTable
 70
     1
  0
VPORT
  5
29
330
8
100
AcDbSymbolTableRecord
100
AcDbViewportTableRecord
  2
*Active
 70
     0
 10
0.0
 20
0.0
 11
1.0
 21
1.0
 12
0.0
 22
0.0
 13
0.0
 23
0.0
 14
0.5
 24
0.5
 15
0.5
 25
0.5
 16
0.0
 26
0.0
 36
1.0
 17
393.0
 27
-306.0
 37
0.0
 40
68.0
 41
4.235294117647059
 42
50.0
 43
0.0
 44
0.0
 50
0.0
 51
0.0
 71
     0
 72
   100
 73
     1
 74
     3
 75
     0
 76
     0
 77
     0
 78
     0
281
     0
 65
     1
110
0.0
120
0.0
130
0.0
111
1.0
121
0.0
131
0.0
112
0.0
122
1.0
132
0.0
 79
     0
146
0.0
 60
     3
 61
     5
292
     1
282
     1
141
0.0
142
0.0
 63
   250
361
3F
  0
ENDTAB
  0
TABLE
  2
LTYPE
  5
5
330
0
100
AcDbSymbolTable
 70
     1
  0
LTYPE
  5
14
330
5
100
AcDbSymbolTableRecord
100
AcDbLinetypeTableRecord
  2
ByBlock
 70
     0
  3

 72
    65
 73
     0
 40
0.0
  0
LTYPE
  5
15
330
5
100
AcDbSymbolTableRecord
100
AcDbLinetypeTableRecord
  2
ByLayer
 70
     0
  3

 72
    65
 73
     0
 40
0.0
  0
LTYPE
  5
16
330
5
100
AcDbSymbolTableRecord
100
AcDbLinetypeTableRecord
  2
Continuous
 70
     0
  3
Solid line
 72
    65
 73
     0
 40
0.0
  0
ENDTAB
  0
TABLE
  2
LAYER
  5
2
330
0
100
AcDbSymbolTable
 70
     2
  0
LAYER
  5
10
330
2
100
AcDbSymbolTableRecord
100
AcDbLayerTableRecord
  2
0
 70
     0
 62
     7
  6
Continuous
370
    -3
390
F
347
3E
  0
LAYER
  5
40
330
2
100
AcDbSymbolTableRecord
100
AcDbLayerTableRecord
  2
Layer 1
 70
     0
 62
     7
  6
Continuous
370
    -3
390
F
347
3E
  0
ENDTAB
  0
TABLE
  2
STYLE
  5
3
330
0
100
AcDbSymbolTable
 70
     1
  0
STYLE
  5
11
330
3
100
AcDbSymbolTableRecord
100
AcDbTextStyleTableRecord
  2
Standard
 70
     0
 40
0.0
 41
1.0
 50
0.0
 71
     0
 42
0.2
  3
txt
  4

  0
ENDTAB
  0
TABLE
  2
VIEW
  5
6
330
0
100
AcDbSymbolTable
 70
     0
  0
ENDTAB
  0
TABLE
  2
UCS
  5
7
330
0
100
AcDbSymbolTable
 70
     0
  0
ENDTAB
  0
TABLE
  2
APPID
  5
9
330
0
100
AcDbSymbolTable
 70
     1
  0
APPID
  5
12
330
9
100
AcDbSymbolTableRecord
100
AcDbRegAppTableRecord
  2
ACAD
 70
     0
  0
ENDTAB
  0
TABLE
  2
DIMSTYLE
  5
A
330
0
100
AcDbSymbolTable
 70
     1
100
AcDbDimStyleTable
  0
DIMSTYLE
105
27
330
A
100
AcDbSymbolTableRecord
100
AcDbDimStyleTableRecord
  2
Standard
 70
     0
178
     0
340
11
  0
ENDTAB
  0
TABLE
  2
BLOCK_RECORD
  5
1
330
0
100
AcDbSymbolTable
 70
     3
  0
BLOCK_RECORD
  5
1F
330
1
100
AcDbSymbolTableRecord
100
AcDbBlockTableRecord
  2
*Model_Space
340
22
 70
     0
280
     1
281
     0
  0
BLOCK_RECORD
  5
1B
330
1
100
AcDbSymbolTableRecord
100
AcDbBlockTableRecord
  2
*Paper_Space
340
1E
 70
     0
280
     1
281
     0
  0
BLOCK_RECORD
  5
23
330
1
100
AcDbSymbolTableRecord
100
AcDbBlockTableRecord
  2
*Paper_Space0
340
26
 70
     0
280
     1
281
     0
  0
BLOCK_RECORD
  5
41
330
1
100
AcDbSymbolTableRecord
100
AcDbBlockTableRecord
  2
block 2
340
0
102
{BLKREFS
331
42
102
}
 70
     0
280
     1
281
     0
  0
BLOCK_RECORD
  5
67
330
1
100
AcDbSymbolTableRecord
100
AcDbBlockTableRecord
  2
block 3
340
0
102
{BLKREFS
331
68
102
}
 70
     0
280
     1
281
     0
  0
ENDTAB
  0
ENDSEC
  0
SECTION
  2
BLOCKS
  0
BLOCK
  5
20
330
1F
100
AcDbEntity
  8
0
100
AcDbBlockBegin
  2
*Model_Space
 70
     0
 10
0.0
 20
0.0
 30
0.0
  3
*Model_Space
  1

  0
ENDBLK
  5
21
330
1F
100
AcDbEntity
  8
0
100
AcDbBlockEnd
  0
BLOCK
  5
1C
330
1B
100
AcDbEntity
 67
     1
  8
0
100
AcDbBlockBegin
  2
*Paper_Space
 70
     0
 10
0.0
 20
0.0
 30
0.0
  3
*Paper_Space
  1

  0
ENDBLK
  5
1D
330
1B
100
AcDbEntity
 67
     1
  8
0
100
AcDbBlockEnd
  0
BLOCK
  5
24
330
23
100
AcDbEntity
  8
0
100
AcDbBlockBegin
  2
*Paper_Space0
 70
     0
 10
0.0
 20
0.0
 30
0.0
  3
*Paper_Space0
  1

  0
ENDBLK
  5
25
330
23
100
AcDbEntity
  8
0
100
AcDbBlockEnd
  0
BLOCK
  5
43
330
41
100
AcDbEntity
  8
0
100
AcDbBlockBegin
  2
block 2
 70
     0
 10
0.0
 20
0.0
 30
0.0
  3
block 2
  1

  0
SPLINE
  5
45
330
41
100
AcDbEntity
  8
Layer 1
370
     0
100
AcDbSpline
210
0.0
220
0.0
230
1.0
 70
    11
 71
     3
 72
    38
 73
    34
 74
     0
 42
0.0000000001
 43
0.0000000001
 12
1.0
 22
0.0
 32
0.0
 13
1.0
 23
0.0
 33
0.0
 40
0.0
 40
0.0
 40
0.0
 40
0.0
 40
1.0
 40
1.0
 40
1.0
 40
2.0
 40
2.0
 40
2.0
 40
3.0
 40
3.0
 40
3.0
 40
4.0
 40
4.0
 40
4.0
 40
5.0
 40
5.0
 40
5.0
 40
6.0
 40
6.0
 40
6.0
 40
7.0
 40
7.0
 40
7.0
 40
8.0
 40
8.0
 40
8.0
 40
9.0
 40
9.0
 40
9.0
 40
10.0
 40
10.0
 40
10.0
 40
11.0
 40
11.0
 40
11.0
 40
11.0
 10
265.1300564468056
 20
-323.0221515715002
 30
0.0
 10
265.1300564468056
 20
-323.0221515715002
 30
0.0
 10
265.1300564468056
 20
-289.9635428527981
 30
0.0
 10
265.1300564468056
 20
-289.9635428527981
 30
0.0
 10
265.1300564468056
 20
-289.9635428527981
 30
0.0
 10
278.7305431294508
 20
-289.9635428527981
 30
0.0
 10
278.7305431294508
 20
-289.9635428527981
 30
0.0
 10
281.7379114718178
 20
-289.9635428527981
 30
0.0
 10
284.1206149968029
 20
-290.1393467235557
 30
0.0
 10
285.8786537044052
 20
-290.4909544650764
 30
0.0
 10
287.6366924120084
 20
-290.842562206597
 30
0.0
 10
289.1067120121952
 20
-291.4073788977639
 30
0.0
 10
290.2887125049674
 20
-292.1854045385744
 30
0.0
 10
291.8148397234809
 20
-293.2177847158055
 30
0.0
 10
292.9519541215905
 20
-294.4970384136759
 30
0.0
 10
293.7000556992934
 20
-296.0231656321921
 30
0.0
 10
294.4481572769964
 20
-297.5492928507074
 30
0.0
 10
294.8222080658479
 20
-299.359698668748
 30
0.0
 10
294.8222080658479
 20
-301.4543830863186
 30
0.0
 10
294.8222080658479
 20
-305.1500048801718
 30
0.0
 10
293.7299797624009
 20
-307.9815693517776
 30
0.0
 10
291.545523155507
 20
-309.9490765011396
 30
0.0
 10
289.361066548614
 20
-311.9165836504981
 30
0.0
 10
286.2115589064833
 20
-312.9003372251755
 30
0.0
 10
282.097000229116
 20
-312.9003372251755
 30
0.0
 10
282.097000229116
 20
-312.9003372251755
 30
0.0
 10
275.7456178344164
 20
-312.9003372251755
 30
0.0
 10
275.7456178344164
 20
-312.9003372251755
 30
0.0
 10
275.7456178344164
 20
-312.9003372251755
 30
0.0
 10
275.7456178344164
 20
-323.0221515715002
 30
0.0
 10
275.7456178344164
 20
-323.0221515715002
 30
0.0
 10
275.7456178344164
 20
-323.0221515715002
 30
0.0
 10
265.1300564468056
 20
-323.0221515715002
 30
0.0
 10
265.1300564468056
 20
-323.0221515715002
 30
0.0
  0
SPLINE
  5
46
330
41
100
AcDbEntity
  8
Layer 1
370
     0
100
AcDbSpline
210
0.0
220
0.0
230
1.0
 70
    11
 71
     3
 72
    26
 73
    22
 74
     0
 42
0.0000000001
 43
0.0000000001
 12
1.0
 22
0.0
 32
0.0
 13
1.0
 23
0.0
 33
0.0
 40
0.0
 40
0.0
 40
0.0
 40
0.0
 40
1.0
 40
1.0
 40
1.0
 40
2.0
 40
2.0
 40
2.0
 40
3.0
 40
3.0
 40
3.0
 40
4.0
 40
4.0
 40
4.0
 40
5.0
 40
5.0
 40
5.0
 40
6.0
 40
6.0
 40
6.0
 40
7.0
 40
7.0
 40
7.0
 40
7.0
 10
275.7456178344164
 20
-304.8208401859829
 30
0.0
 10
275.7456178344164
 20
-304.8208401859829
 30
0.0
 10
279.1569610287424
 20
-304.8208401859829
 30
0.0
 10
279.1569610287424
 20
-304.8208401859829
 30
0.0
 10
281.371341698743
 20
-304.8208401859829
 30
0.0
 10
282.8525828225984
 20
-304.5739666653408
 30
0.0
 10
283.6006844002986
 20
-304.0802196240547
 30
0.0
 10
284.3487859780034
 20
-303.5864725827723
 30
0.0
 10
284.722836766854
 20
-302.7111937368591
 30
0.0
 10
284.722836766854
 20
-301.4543830863186
 30
0.0
 10
284.722836766854
 20
-300.1826104042229
 30
0.0
 10
284.3637480095558
 20
-299.299850542533
 30
0.0
 10
283.6455704949612
 20
-298.8061035012488
 30
0.0
 10
282.9273929803658
 20
-298.3123564599646
 30
0.0
 10
281.4311898249598
 20
-298.0654829393225
 30
0.0
 10
279.1569610287424
 20
-298.0654829393225
 30
0.0
 10
279.1569610287424
 20
-298.0654829393225
 30
0.0
 10
275.7456178344164
 20
-298.0654829393225
 30
0.0
 10
275.7456178344164
 20
-298.0654829393225
 30
0.0
 10
275.7456178344164
 20
-298.0654829393225
 30
0.0
 10
275.7456178344164
 20
-304.8208401859829
 30
0.0
 10
275.7456178344164
 20
-304.8208401859829
 30
0.0
  0
POLYLINE
  5
47
330
41
100
AcDbEntity
  8
Layer 1
370
     0
100
AcDb2dPolyline
 66
     1
 10
0.0
 20
0.0
 30
0.0
  0
VERTEX
  5
48
330
47
100
AcDbEntity
  8
Layer 1
370
     0
100
AcDbVertex
100
AcDb2dVertex
 10
299.2210453427424
 20
-323.0221515715002
 30
0.0
  0
VERTEX
  5
49
330
47
100
AcDbEntity
  8
Layer 1
370
     0
100
AcDbVertex
100
AcDb2dVertex
 10
299.2210453427424
 20
-289.9635428527981
 30
0.0
  0
VERTEX
  5
4A
330
47
100
AcDbEntity
  8
Layer 1
370
     0
100
AcDbVertex
100
AcDb2dVertex
 10
310.0385941563318
 20
-289.9635428527981
 30
0.0
  0
VERTEX
  5
4B
330
47
100
AcDbEntity
  8
Layer 1
370
     0
100
AcDbVertex
100
AcDb2dVertex
 10
310.0385941563318
 20
-323.0221515715002
 30
0.0
  0
VERTEX
  5
4C
330
47
100
AcDbEntity
  8
Layer 1
370
     0
100
AcDbVertex
100
AcDb2dVertex
 10
299.2210453427424
 20
-323.0221515715002
 30
0.0
  0
SEQEND
  5
4D
330
47
100
AcDbEntity
  8
Layer 1
370
     0
  0
POLYLINE
  5
4E
330
41
100
AcDbEntity
  8
Layer 1
370
     0
100
AcDb2dPolyline
 66
     1
 10
0.0
 20
0.0
 30
0.0
  0
VERTEX
  5
4F
330
4E
100
AcDbEntity
  8
Layer 1
370
     0
100
AcDbVertex
100
AcDb2dVertex
 10
347.7101106562668
 20
-323.0221515715002
 30
0.0
  0
VERTEX
  5
50
330
4E
100
AcDbEntity
  8
Layer 1
370
     0
100
AcDbVertex
100
AcDb2dVertex
 10
347.7101106562668
 20
-315.0773128162909
 30
0.0
  0
VERTEX
  5
51
330
4E
100
AcDbEntity
  8
Layer 1
370
     0
100
AcDbVertex
100
AcDb2dVertex
 10
363.016268936075
 20
-298.514343885945
 30
0.0
  0
VERTEX
  5
52
330
4E
100
AcDbEntity
  8
Layer 1
370
     0
100
AcDbVertex
100
AcDb2dVertex
 10
348.2038576975501
 20
-298.514343885945
 30
0.0
  0
VERTEX
  5
53
330
4E
100
AcDbEntity
  8
Layer 1
370
     0
100
AcDbVertex
100
AcDb2dVertex
 10
348.2038576975501
 20
-289.9635428527981
 30
0.0
  0
VERTEX
  5
54
330
4E
100
AcDbEntity
  8
Layer 1
370
     0
100
AcDbVertex
100
AcDb2dVertex
 10
376.0556794354434
 20
-289.9635428527981
 30
0.0
  0
VERTEX
  5
55
330
4E
100
AcDbEntity
  8
Layer 1
370
     0
100
AcDbVertex
100
AcDb2dVertex
 10
376.0556794354434
 20
-297.8410524660103
 30
0.0
  0
VERTEX
  5
56
330
4E
100
AcDbEntity
  8
Layer 1
370
     0
100
AcDbVertex
100
AcDb2dVertex
 10
360.5699767769847
 20
-314.5162366330151
 30
0.0
  0
VERTEX
  5
57
330
4E
100
AcDbEntity
  8
Layer 1
370
     0
100
AcDbVertex
100
AcDb2dVertex
 10
376.8860721866922
 20
-314.5162366330151
 30
0.0
  0
VERTEX
  5
58
330
4E
100
AcDbEntity
  8
Layer 1
370
     0
100
AcDbVertex
100
AcDb2dVertex
 10
376.8860721866922
 20
-323.0221515715002
 30
0.0
  0
VERTEX
  5
59
330
4E
100
AcDbEntity
  8
Layer 1
370
     0
100
AcDbVertex
100
AcDb2dVertex
 10
347.7101106562668
 20
-323.0221515715002
 30
0.0
  0
SEQEND
  5
5A
330
4E
100
AcDbEntity
  8
Layer 1
370
     0
  0
SPLINE
  5
5B
330
41
100
AcDbEntity
  8
Layer 1
370
     0
100
AcDbSpline
210
0.0
220
0.0
230
1.0
 70
    11
 71
     3
 72
    29
 73
    25
 74
     0
 42
0.0000000001
 43
0.0000000001
 12
1.0
 22
0.0
 32
0.0
 13
1.0
 23
0.0
 33
0.0
 40
0.0
 40
0.0
 40
0.0
 40
0.0
 40
1.0
 40
1.0
 40
1.0
 40
2.0
 40
2.0
 40
2.0
 40
3.0
 40
3.0
 40
3.0
 40
4.0
 40
4.0
 40
4.0
 40
5.0
 40
5.0
 40
5.0
 40
6.0
 40
6.0
 40
6.0
 40
7.0
 40
7.0
 40
7.0
 40
8.0
 40
8.0
 40
8.0
 40
8.0
 10
380.2525292863556
 20
-306.5265117831477
 30
0.0
 10
380.2525292863556
 20
-301.140180423683
 30
0.0
 10
381.7898780285368
 20
-296.8909634623269
 30
0.0
 10
384.8645755128973
 20
-293.7788608990813
 30
0.0
 10
387.9392729972578
 20
-290.6667583358376
 30
0.0
 10
392.1323823402854
 20
-289.1107070542148
 30
0.0
 10
397.4439035419764
 20
-289.1107070542148
 30
0.0
 10
402.7404627121141
 20
-289.1107070542148
 30
0.0
 10
406.9223505314767
 20
-290.6667583358376
 30
0.0
 10
409.9895670000587
 20
-293.7788608990813
 30
0.0
 10
413.0567834686444
 20
-296.8909634623269
 30
0.0
 10
414.5903917029336
 20
-301.140180423683
 30
0.0
 10
414.5903917029336
 20
-306.5265117831477
 30
0.0
 10
414.5903917029336
 20
-311.8978811110537
 30
0.0
 10
413.0567834686444
 20
-316.1433575645206
 30
0.0
 10
409.9895670000587
 20
-319.2629411435428
 30
0.0
 10
406.9223505314767
 20
-322.382524722565
 30
0.0
 10
402.7404627121141
 20
-323.9423165120752
 30
0.0
 10
397.4439035419764
 20
-323.9423165120752
 30
0.0
 10
392.1323823402854
 20
-323.9423165120752
 30
0.0
 10
387.9392729972578
 20
-322.382524722565
 30
0.0
 10
384.8645755128973
 20
-319.2629411435428
 30
0.0
 10
381.7898780285368
 20
-316.1433575645206
 30
0.0
 10
380.2525292863556
 20
-311.8978811110537
 30
0.0
 10
380.2525292863556
 20
-306.5265117831477
 30
0.0
  0
SPLINE
  5
5C
330
41
100
AcDbEntity
  8
Layer 1
370
     0
100
AcDbSpline
210
0.0
220
0.0
230
1.0
 70
    11
 71
     3
 72
    29
 73
    25
 74
     0
 42
0.0000000001
 43
0.0000000001
 12
1.0
 22
0.0
 32
0.0
 13
1.0
 23
0.0
 33
0.0
 40
0.0
 40
0.0
 40
0.0
 40
0.0
 40
1.0
 40
1.0
 40
1.0
 40
2.0
 40
2.0
 40
2.0
 40
3.0
 40
3.0
 40
3.0
 40
4.0
 40
4.0
 40
4.0
 40
5.0
 40
5.0
 40
5.0
 40
6.0
 40
6.0
 40
6.0
 40
7.0
 40
7.0
 40
7.0
 40
8.0
 40
8.0
 40
8.0
 40
8.0
 10
390.9578628632908
 20
-306.5265117831477
 30
0.0
 10
390.9578628632908
 20
-309.6535763779466
 30
0.0
 10
391.4815339676807
 20
-311.9502482214921
 30
0.0
 10
392.5288761764668
 20
-313.4165273137914
 30
0.0
 10
393.5762183852503
 20
-314.882806406089
 30
0.0
 10
395.2145608404226
 20
-315.6159459522423
 30
0.0
 10
397.4439035419764
 20
-315.6159459522423
 30
0.0
 10
399.6582842119788
 20
-315.6159459522423
 30
0.0
 10
401.2816646355932
 20
-314.8865469139782
 30
0.0
 10
402.3140448128252
 20
-313.4277488374573
 30
0.0
 10
403.3464249900535
 20
-311.9689507609346
 30
0.0
 10
403.8626150786695
 20
-309.6685384095017
 30
0.0
 10
403.8626150786695
 20
-306.5265117831477
 30
0.0
 10
403.8626150786695
 20
-303.3695231252386
 30
0.0
 10
403.3464249900535
 20
-301.0616297580236
 30
0.0
 10
402.3140448128252
 20
-299.6028316815027
 30
0.0
 10
401.2816646355932
 20
-298.1440336049818
 30
0.0
 10
399.6582842119788
 20
-297.4146345667214
 30
0.0
 10
397.4439035419764
 20
-297.4146345667214
 30
0.0
 10
395.2145608404226
 20
-297.4146345667214
 30
0.0
 10
393.5762183852503
 20
-298.1477741128692
 30
0.0
 10
392.5288761764668
 20
-299.6140532051686
 30
0.0
 10
391.4815339676807
 20
-301.0803322974662
 30
0.0
 10
390.9578628632908
 20
-303.3844851567919
 30
0.0
 10
390.9578628632908
 20
-306.5265117831477
 30
0.0
  0
SPLINE
  5
5D
330
41
100
AcDbEntity
  8
Layer 1
370
     0
100
AcDbSpline
210
0.0
220
0.0
230
1.0
 70
    11
 71
     3
 72
    17
 73
    13
 74
     0
 42
0.0000000001
 43
0.0000000001
 12
1.0
 22
0.0
 32
0.0
 13
1.0
 23
0.0
 33
0.0
 40
0.0
 40
0.0
 40
0.0
 40
0.0
 40
1.0
 40
1.0
 40
1.0
 40
2.0
 40
2.0
 40
2.0
 40
3.0
 40
3.0
 40
3.0
 40
4.0
 40
4.0
 40
4.0
 40
4.0
 10
341.8092873888945
 20
-284.4316042620158
 30
0.0
 10
334.9891817301595
 20
-287.9825855663421
 30
0.0
 10
325.3415842514787
 20
-290.1972667515693
 30
0.0
 10
314.6460382474743
 20
-290.1972667515729
 30
0.0
 10
314.6460382474743
 20
-290.1972667515729
 30
0.0
 10
314.6460382474743
 20
-298.289976382388
 30
0.0
 10
314.6460382474743
 20
-298.289976382388
 30
0.0
 10
326.4503006162377
 20
-298.2899763823862
 30
0.0
 10
336.9780896752927
 20
-295.5923425252477
 30
0.0
 10
343.8371021223893
 20
-291.3779136989397
 30
0.0
 10
343.8371021223893
 20
-291.3779136989397
 30
0.0
 10
341.8092873888945
 20
-284.4316042620158
 30
0.0
 10
341.8092873888945
 20
-284.4316042620158
 30
0.0
  0
SPLINE
  5
5E
330
41
100
AcDbEntity
  8
Layer 1
370
     0
100
AcDbSpline
210
0.0
220
0.0
230
1.0
 70
    11
 71
     3
 72
    17
 73
    13
 74
     0
 42
0.0000000001
 43
0.0000000001
 12
1.0
 22
0.0
 32
0.0
 13
1.0
 23
0.0
 33
0.0
 40
0.0
 40
0.0
 40
0.0
 40
0.0
 40
1.0
 40
1.0
 40
1.0
 40
2.0
 40
2.0
 40
2.0
 40
3.0
 40
3.0
 40
3.0
 40
4.0
 40
4.0
 40
4.0
 40
4.0
 10
341.8092873888945
 20
-328.6814456189913
 30
0.0
 10
334.9891817301595
 20
-325.1304643146632
 30
0.0
 10
325.3415842514787
 20
-322.9157831294324
 30
0.0
 10
314.6460382474743
 20
-322.9157831294324
 30
0.0
 10
314.6460382474743
 20
-322.9157831294324
 30
0.0
 10
314.6460382474743
 20
-314.8230734986191
 30
0.0
 10
314.6460382474743
 20
-314.8230734986191
 30
0.0
 10
326.4503006162377
 20
-314.8230734986191
 30
0.0
 10
336.9780896752927
 20
-317.5207073557576
 30
0.0
 10
343.8371021223893
 20
-321.7351361820656
 30
0.0
 10
343.8371021223893
 20
-321.7351361820656
 30
0.0
 10
341.8092873888945
 20
-328.6814456189913
 30
0.0
 10
341.8092873888945
 20
-328.6814456189913
 30
0.0
  0
POLYLINE
  5
5F
330
41
100
AcDbEntity
  8
Layer 1
370
     0
100
AcDb2dPolyline
 66
     1
 10
0.0
 20
0.0
 30
0.0
  0
VERTEX
  5
60
330
5F
100
AcDbEntity
  8
Layer 1
370
     0
100
AcDbVertex
100
AcDb2dVertex
 10
340.5961597720434
 20
-303.878524961543
 30
0.0
  0
VERTEX
  5
61
330
5F
100
AcDbEntity
  8
Layer 1
370
     0
100
AcDbVertex
100
AcDb2dVertex
 10
314.6460382474743
 20
-303.878524961543
 30
0.0
  0
VERTEX
  5
62
330
5F
100
AcDbEntity
  8
Layer 1
370
     0
100
AcDbVertex
100
AcDb2dVertex
 10
314.6460382474743
 20
-308.5533807633055
 30
0.0
  0
VERTEX
  5
63
330
5F
100
AcDbEntity
  8
Layer 1
370
     0
100
AcDbVertex
100
AcDb2dVertex
 10
340.5961597720434
 20
-308.5533807633055
 30
0.0
  0
VERTEX
  5
64
330
5F
100
AcDbEntity
  8
Layer 1
370
     0
100
AcDbVertex
100
AcDb2dVertex
 10
340.5961597720434
 20
-303.878524961543
 30
0.0
  0
SEQEND
  5
66
330
5F
100
AcDbEntity
  8
Layer 1
370
     0
  0
HATCH
  5
65
330
41
100
AcDbEntity
  8
Layer 1
 62
     7
420
 15790320
100
AcDbHatch
 10
0.0
 20
0.0
 30
0.0
210
0.0
220
0.0
230
1.0
  2
SOLID
 70
     1
 71
     0
 91
        1
 92
        1
 93
        4
 72
     1
 10
340.5961597720434
 20
-303.878524961543
 11
314.6460382474743
 21
-303.878524961543
 72
     1
 10
314.6460382474743
 20
-303.878524961543
 11
314.6460382474743
 21
-308.5533807633055
 72
     1
 10
314.6460382474743
 20
-308.5533807633055
 11
340.5961597720434
 21
-308.5533807633055
 72
     1
 10
340.5961597720434
 20
-308.5533807633055
 11
340.5961597720434
 21
-303.878524961543
 97
        0
 75
     2
 76
     1
 98
        0
  0
ENDBLK
  5
44
330
41
100
AcDbEntity
  8
0
100
AcDbBlockEnd
  0
BLOCK
  5
69
330
67
100
AcDbEntity
  8
0
100
AcDbBlockBegin
  2
block 3
 70
     0
 10
0.0
 20
0.0
 30
0.0
  3
block 3
  1

  0
SPLINE
  5
6B
330
67
100
AcDbEntity
  8
Layer 1
370
     0
100
AcDbSpline
210
0.0
220
0.0
230
1.0
 70
    11
 71
     3
 72
    59
 73
    55
 74
     0
 42
0.0000000001
 43
0.0000000001
 12
1.0
 22
0.0
 32
0.0
 13
1.0
 23
0.0
 33
0.0
 40
0.0
 40
0.0
 40
0.0
 40
0.0
 40
1.0
 40
1.0
 40
1.0
 40
2.0
 40
2.0
 40
2.0
 40
3.0
 40
3.0
 40
3.0
 40
4.0
 40
4.0
 40
4.0
 40
5.0
 40
5.0
 40
5.0
 40
6.0
 40
6.0
 40
6.0
 40
7.0
 40
7.0
 40
7.0
 40
8.0
 40
8.0
 40
8.0
 40
9.0
 40
9.0
 40
9.0
 40
10.0
 40
10.0
 40
10.0
 40
11.0
 40
11.0
 40
11.0
 40
12.0
 40
12.0
 40
12.0
 40
13.0
 40
13.0
 40
13.0
 40
14.0
 40
14.0
 40
14.0
 40
15.0
 40
15.0
 40
15.0
 40
16.0
 40
16.0
 40
16.0
 40
17.0
 40
17.0
 40
17.0
 40
18.0
 40
18.0
 40
18.0
 40
18.0
 10
451.0388703791614
 20
-312.1736026381113
 30
0.0
 10
451.0388703791614
 20
-312.1736026381113
 30
0.0
 10
454.0292408632431
 20
-312.1736026381113
 30
0.0
 10
454.0292408632431
 20
-312.1736026381113
 30
0.0
 10
453.7744223257523
 20
-315.8459874431264
 30
0.0
 10
452.4813431590337
 20
-318.7204404748591
 30
0.0
 10
450.1505030072803
 20
-320.7959624449304
 30
0.0
 10
447.8196628555288
 20
-322.8724837033842
 30
0.0
 10
444.7058802562315
 20
-323.910244688419
 30
0.0
 10
440.8086555651971
 20
-323.910244688419
 30
0.0
 10
436.3568258219766
 20
-323.910244688419
 30
0.0
 10
432.8418289371784
 20
-322.3478573026678
 30
0.0
 10
430.2636649108026
 20
-319.2220832427811
 30
0.0
 10
427.685500884425
 20
-316.0973084712787
 30
0.0
 10
426.396418871238
 20
-311.8138588204783
 30
0.0
 10
426.396418871238
 20
-306.3727335787653
 30
0.0
 10
426.396418871238
 20
-300.9765763142559
 30
0.0
 10
427.6964930566319
 20
-296.7345971313234
 30
0.0
 10
430.2976407158003
 20
-293.6467960299651
 30
0.0
 10
432.8977890865881
 20
-290.5589949286068
 30
0.0
 10
436.4317724506509
 20
-289.0150943779281
 30
0.0
 10
440.8985915196045
 20
-289.0150943779281
 30
0.0
 10
444.645922953292
 20
-289.0150943779281
 30
0.0
 10
447.6772642610485
 20
-289.9709137156142
 30
0.0
 10
449.9936147312583
 20
-291.881553102603
 30
0.0
 10
452.3089659130856
 20
-293.7931917779742
 30
0.0
 10
453.5495824397312
 20
-296.3523693250872
 30
0.0
 10
453.7144650228129
 20
-299.5600850323226
 30
0.0
 10
453.7144650228129
 20
-299.5600850323226
 30
0.0
 10
450.7240945387312
 20
-299.5600850323226
 30
0.0
 10
450.7240945387312
 20
-299.5600850323226
 30
0.0
 10
450.4692760012404
 20
-297.1318142632936
 30
0.0
 10
449.4649911770139
 20
-295.217177722775
 30
0.0
 10
447.711240066048
 20
-293.8151761223853
 30
0.0
 10
445.9574889550822
 20
-292.4141738103781
 30
0.0
 10
443.6866061062683
 20
-291.7131730101828
 30
0.0
 10
440.8985915196045
 20
-291.7131730101828
 30
0.0
 10
437.3161426690003
 20
-291.7131730101828
 30
0.0
 10
434.5281280823365
 20
-292.9912628511656
 30
0.0
 10
432.5345477596165
 20
-295.5469428889401
 30
0.0
 10
430.5409674368948
 20
-298.1026229267154
 30
0.0
 10
429.5441772755348
 20
-301.6960639495246
 30
0.0
 10
429.5441772755348
 20
-306.3277656015607
 30
0.0
 10
429.5441772755348
 20
-310.9894459050665
 30
0.0
 10
430.5594542719664
 20
-314.6393467214784
 30
0.0
 10
432.5910075532156
 20
-317.2774680507937
 30
0.0
 10
434.6215615460842
 20
-319.9155893801089
 30
0.0
 10
437.4285626120109
 20
-321.2346500447675
 30
0.0
 10
441.011011462615
 20
-321.2346500447675
 30
0.0
 10
443.9339299808908
 20
-321.2346500447675
 30
0.0
 10
446.2832569677157
 20
-320.4327211179589
 30
0.0
 10
448.059991711476
 20
-318.8288632643398
 30
0.0
 10
449.8357271668519
 20
-317.2250054107208
 30
0.0
 10
450.8290198188733
 20
-315.0065852019798
 30
0.0
 10
451.0388703791614
 20
-312.1736026381113
 30
0.0
  0
HATCH
  5
6C
330
67
100
AcDbEntity
  8
Layer 1
 62
     7
420
 15790320
100
AcDbHatch
 10
0.0
 20
0.0
 30
0.0
210
0.0
220
0.0
230
1.0
  2
SOLID
 70
     1
 71
     0
 91
        1
 92
        1
 93
        1
 72
     4
 94
        3
 73
     0
 74
     1
 95
       59
 96
       55
 40
0.0
 40
0.0
 40
0.0
 40
0.0
 40
1.0
 40
1.0
 40
1.0
 40
2.0
 40
2.0
 40
2.0
 40
3.0
 40
3.0
 40
3.0
 40
4.0
 40
4.0
 40
4.0
 40
5.0
 40
5.0
 40
5.0
 40
6.0
 40
6.0
 40
6.0
 40
7.0
 40
7.0
 40
7.0
 40
8.0
 40
8.0
 40
8.0
 40
9.0
 40
9.0
 40
9.0
 40
10.0
 40
10.0
 40
10.0
 40
11.0
 40
11.0
 40
11.0
 40
12.0
 40
12.0
 40
12.0
 40
13.0
 40
13.0
 40
13.0
 40
14.0
 40
14.0
 40
14.0
 40
15.0
 40
15.0
 40
15.0
 40
16.0
 40
16.0
 40
16.0
 40
17.0
 40
17.0
 40
17.0
 40
18.0
 40
18.0
 40
18.0
 40
18.0
 10
451.0388703791614
 20
-312.1736026381113
 10
451.0388703791614
 20
-312.1736026381113
 10
454.0292408632431
 20
-312.1736026381113
 10
454.0292408632431
 20
-312.1736026381113
 10
453.7744223257523
 20
-315.8459874431264
 10
452.4813431590337
 20
-318.7204404748591
 10
450.1505030072803
 20
-320.7959624449304
 10
447.8196628555288
 20
-322.8724837033842
 10
444.7058802562315
 20
-323.910244688419
 10
440.8086555651971
 20
-323.910244688419
 10
436.3568258219766
 20
-323.910244688419
 10
432.8418289371784
 20
-322.3478573026678
 10
430.2636649108026
 20
-319.2220832427811
 10
427.685500884425
 20
-316.0973084712787
 10
426.396418871238
 20
-311.8138588204783
 10
426.396418871238
 20
-306.3727335787653
 10
426.396418871238
 20
-300.9765763142559
 10
427.6964930566319
 20
-296.7345971313234
 10
430.2976407158003
 20
-293.6467960299651
 10
432.8977890865881
 20
-290.5589949286068
 10
436.4317724506509
 20
-289.0150943779281
 10
440.8985915196045
 20
-289.0150943779281
 10
444.645922953292
 20
-289.0150943779281
 10
447.6772642610485
 20
-289.9709137156142
 10
449.9936147312583
 20
-291.881553102603
 10
452.3089659130856
 20
-293.7931917779742
 10
453.5495824397312
 20
-296.3523693250872
 10
453.7144650228129
 20
-299.5600850323226
 10
453.7144650228129
 20
-299.5600850323226
 10
450.7240945387312
 20
-299.5600850323226
 10
450.7240945387312
 20
-299.5600850323226
 10
450.4692760012404
 20
-297.1318142632936
 10
449.4649911770139
 20
-295.217177722775
 10
447.711240066048
 20
-293.8151761223853
 10
445.9574889550822
 20
-292.4141738103781
 10
443.6866061062683
 20
-291.7131730101828
 10
440.8985915196045
 20
-291.7131730101828
 10
437.3161426690003
 20
-291.7131730101828
 10
434.5281280823365
 20
-292.9912628511656
 10
432.5345477596165
 20
-295.5469428889401
 10
430.5409674368948
 20
-298.1026229267154
 10
429.5441772755348
 20
-301.6960639495246
 10
429.5441772755348
 20
-306.3277656015607
 10
429.5441772755348
 20
-310.9894459050665
 10
430.5594542719664
 20
-314.6393467214784
 10
432.5910075532156
 20
-317.2774680507937
 10
434.6215615460842
 20
-319.9155893801089
 10
437.4285626120109
 20
-321.2346500447675
 10
441.011011462615
 20
-321.2346500447675
 10
443.9339299808908
 20
-321.2346500447675
 10
446.2832569677157
 20
-320.4327211179589
 10
448.059991711476
 20
-318.8288632643398
 10
449.8357271668519
 20
-317.2250054107208
 10
450.8290198188733
 20
-315.0065852019798
 10
451.0388703791614
 20
-312.1736026381113
 97
        0
 97
        0
 75
     2
 76
     1
 98
        0
  0
SPLINE
  5
6D
330
67
100
AcDbEntity
  8
Layer 1
370
     0
100
AcDbSpline
210
0.0
220
0.0
230
1.0
 70
    11
 71
     3
 72
    29
 73
    25
 74
     0
 42
0.0000000001
 43
0.0000000001
 12
1.0
 22
0.0
 32
0.0
 13
1.0
 23
0.0
 33
0.0
 40
0.0
 40
0.0
 40
0.0
 40
0.0
 40
1.0
 40
1.0
 40
1.0
 40
2.0
 40
2.0
 40
2.0
 40
3.0
 40
3.0
 40
3.0
 40
4.0
 40
4.0
 40
4.0
 40
5.0
 40
5.0
 40
5.0
 40
6.0
 40
6.0
 40
6.0
 40
7.0
 40
7.0
 40
7.0
 40
8.0
 40
8.0
 40
8.0
 40
8.0
 10
458.0109057729987
 20
-306.4626695331735
 30
0.0
 10
458.0109057729987
 20
-301.0964909201339
 30
0.0
 10
459.37493441486
 20
-296.8470170743331
 30
0.0
 10
462.1029916985844
 20
-293.7142479957711
 30
0.0
 10
464.8310489823089
 20
-290.5814789172091
 30
0.0
 10
468.5184231130552
 20
-289.0150943779281
 30
0.0
 10
473.165114090827
 20
-289.0150943779281
 30
0.0
 10
477.8267943943338
 20
-289.0150943779281
 30
0.0
 10
481.525160697287
 20
-290.5814789172091
 30
0.0
 10
484.2612122880691
 20
-293.7142479957711
 30
0.0
 10
486.9962645904707
 20
-296.8470170743331
 30
0.0
 10
488.3642903858599
 20
-301.0964909201339
 30
0.0
 10
488.3642903858599
 20
-306.4626695331735
 30
0.0
 10
488.3642903858599
 20
-311.8288481462132
 30
0.0
 10
486.9962645904707
 20
-316.078321992014
 30
0.0
 10
484.2612122880691
 20
-319.211091070576
 30
0.0
 10
481.525160697287
 20
-322.343860149138
 30
0.0
 10
477.8267943943338
 20
-323.910244688419
 30
0.0
 10
473.165114090827
 20
-323.910244688419
 30
0.0
 10
468.5184231130552
 20
-323.910244688419
 30
0.0
 10
464.8310489823089
 20
-322.343860149138
 30
0.0
 10
462.1029916985844
 20
-319.211091070576
 30
0.0
 10
459.37493441486
 20
-316.078321992014
 30
0.0
 10
458.0109057729987
 20
-311.8288481462132
 30
0.0
 10
458.0109057729987
 20
-306.4626695331735
 30
0.0
  0
SPLINE
  5
6E
330
67
100
AcDbEntity
  8
Layer 1
370
     0
100
AcDbSpline
210
0.0
220
0.0
230
1.0
 70
    11
 71
     3
 72
    29
 73
    25
 74
     0
 42
0.0000000001
 43
0.0000000001
 12
1.0
 22
0.0
 32
0.0
 13
1.0
 23
0.0
 33
0.0
 40
0.0
 40
0.0
 40
0.0
 40
0.0
 40
1.0
 40
1.0
 40
1.0
 40
2.0
 40
2.0
 40
2.0
 40
3.0
 40
3.0
 40
3.0
 40
4.0
 40
4.0
 40
4.0
 40
5.0
 40
5.0
 40
5.0
 40
6.0
 40
6.0
 40
6.0
 40
7.0
 40
7.0
 40
7.0
 40
8.0
 40
8.0
 40
8.0
 40
8.0
 10
461.1586641772956
 20
-306.4626695331735
 30
0.0
 10
461.1586641772956
 20
-310.9894459050665
 30
0.0
 10
462.2378956301982
 20
-314.5758919092004
 30
0.0
 10
464.3963585360016
 20
-317.221507901384
 30
0.0
 10
466.554821441805
 20
-319.8671238935676
 30
0.0
 10
469.4777399600789
 20
-321.1896820675629
 30
0.0
 10
473.165114090827
 20
-321.1896820675629
 30
0.0
 10
476.86747754731
 20
-321.1896820675629
 30
0.0
 10
479.8053853913207
 20
-319.8706214029044
 30
0.0
 10
481.9788376228589
 20
-317.2325000735891
 30
0.0
 10
484.1522898543972
 20
-314.5943787442739
 30
0.0
 10
485.2390159701663
 20
-311.0044352308032
 30
0.0
 10
485.2390159701663
 20
-306.4626695331735
 30
0.0
 10
485.2390159701663
 20
-301.9059145098108
 30
0.0
 10
484.1522898543972
 20
-298.3009816706044
 30
0.0
 10
481.9788376228589
 20
-295.6478710155534
 30
0.0
 10
479.8053853913207
 20
-292.9947603605033
 30
0.0
 10
476.86747754731
 20
-291.6682050329782
 30
0.0
 10
473.165114090827
 20
-291.6682050329782
 30
0.0
 10
469.5227079372835
 20
-291.6682050329782
 30
0.0
 10
466.6107815912146
 20
-293.0057525327093
 30
0.0
 10
464.4303343409993
 20
-295.6818468205529
 30
0.0
 10
462.2488878024014
 20
-298.3569418200141
 30
0.0
 10
461.1586641772956
 20
-301.9508824870154
 30
0.0
 10
461.1586641772956
 20
-306.4626695331735
 30
0.0
  0
HATCH
  5
6F
330
67
100
AcDbEntity
  8
Layer 1
 62
     7
420
 15790320
100
AcDbHatch
 10
0.0
 20
0.0
 30
0.0
210
0.0
220
0.0
230
1.0
  2
SOLID
 70
     1
 71
     0
 91
        2
 92
        1
 93
        1
 72
     4
 94
        3
 73
     0
 74
     1
 95
       29
 96
       25
 40
0.0
 40
0.0
 40
0.0
 40
0.0
 40
1.0
 40
1.0
 40
1.0
 40
2.0
 40
2.0
 40
2.0
 40
3.0
 40
3.0
 40
3.0
 40
4.0
 40
4.0
 40
4.0
 40
5.0
 40
5.0
 40
5.0
 40
6.0
 40
6.0
 40
6.0
 40
7.0
 40
7.0
 40
7.0
 40
8.0
 40
8.0
 40
8.0
 40
8.0
 10
458.0109057729987
 20
-306.4626695331735
 10
458.0109057729987
 20
-301.0964909201339
 10
459.37493441486
 20
-296.8470170743331
 10
462.1029916985844
 20
-293.7142479957711
 10
464.8310489823089
 20
-290.5814789172091
 10
468.5184231130552
 20
-289.0150943779281
 10
473.165114090827
 20
-289.0150943779281
 10
477.8267943943338
 20
-289.0150943779281
 10
481.525160697287
 20
-290.5814789172091
 10
484.2612122880691
 20
-293.7142479957711
 10
486.9962645904707
 20
-296.8470170743331
 10
488.3642903858599
 20
-301.0964909201339
 10
488.3642903858599
 20
-306.4626695331735
 10
488.3642903858599
 20
-311.8288481462132
 10
486.9962645904707
 20
-316.078321992014
 10
484.2612122880691
 20
-319.211091070576
 10
481.525160697287
 20
-322.343860149138
 10
477.8267943943338
 20
-323.910244688419
 10
473.165114090827
 20
-323.910244688419
 10
468.5184231130552
 20
-323.910244688419
 10
464.8310489823089
 20
-322.343860149138
 10
462.1029916985844
 20
-319.211091070576
 10
459.37493441486
 20
-316.078321992014
 10
458.0109057729987
 20
-311.8288481462132
 10
458.0109057729987
 20
-306.4626695331735
 97
        0
 97
        0
 92
        1
 93
        1
 72
     4
 94
        3
 73
     0
 74
     1
 95
       29
 96
       25
 40
0.0
 40
0.0
 40
0.0
 40
0.0
 40
1.0
 40
1.0
 40
1.0
 40
2.0
 40
2.0
 40
2.0
 40
3.0
 40
3.0
 40
3.0
 40
4.0
 40
4.0
 40
4.0
 40
5.0
 40
5.0
 40
5.0
 40
6.0
 40
6.0
 40
6.0
 40
7.0
 40
7.0
 40
7.0
 40
8.0
 40
8.0
 40
8.0
 40
8.0
 10
461.1586641772956
 20
-306.4626695331735
 10
461.1586641772956
 20
-310.9894459050665
 10
462.2378956301982
 20
-314.5758919092004
 10
464.3963585360016
 20
-317.221507901384
 10
466.554821441805
 20
-319.8671238935676
 10
469.4777399600789
 20
-321.1896820675629
 10
473.165114090827
 20
-321.1896820675629
 10
476.86747754731
 20
-321.1896820675629
 10
479.8053853913207
 20
-319.8706214029044
 10
481.9788376228589
 20
-317.2325000735891
 10
484.1522898543972
 20
-314.5943787442739
 10
485.2390159701663
 20
-311.0044352308032
 10
485.2390159701663
 20
-306.4626695331735
 10
485.2390159701663
 20
-301.9059145098108
 10
484.1522898543972
 20
-298.3009816706044
 10
481.9788376228589
 20
-295.6478710155534
 10
479.8053853913207
 20
-292.9947603605033
 10
476.86747754731
 20
-291.6682050329782
 10
473.165114090827
 20
-291.6682050329782
 10
469.5227079372835
 20
-291.6682050329782
 10
466.6107815912146
 20
-293.0057525327093
 10
464.4303343409993
 20
-295.6818468205529
 10
462.2488878024014
 20
-298.3569418200141
 10
461.1586641772956
 20
-301.9508824870154
 10
461.1586641772956
 20
-306.4626695331735
 97
        0
 97
        0
 75
     2
 76
     1
 98
        0
  0
POLYLINE
  5
70
330
67
100
AcDbEntity
  8
Layer 1
370
     0
100
AcDb2dPolyline
 66
     1
 10
0.0
 20
0.0
 30
0.0
  0
VERTEX
  5
71
330
70
100
AcDbEntity
  8
Layer 1
370
     0
100
AcDbVertex
100
AcDb2dVertex
 10
493.4042020429042
 20
-322.9884011557333
 30
0.0
  0
VERTEX
  5
72
330
70
100
AcDbEntity
  8
Layer 1
370
     0
100
AcDbVertex
100
AcDb2dVertex
 10
493.4042020429042
 20
-289.8694859448087
 30
0.0
  0
VERTEX
  5
73
330
70
100
AcDbEntity
  8
Layer 1
370
     0
100
AcDbVertex
100
AcDb2dVertex
 10
497.6761598773082
 20
-289.8694859448087
 30
0.0
  0
VERTEX
  5
74
330
70
100
AcDbEntity
  8
Layer 1
370
     0
100
AcDbVertex
100
AcDb2dVertex
 10
508.6033783379389
 20
-319.0312191617595
 30
0.0
  0
VERTEX
  5
75
330
70
100
AcDbEntity
  8
Layer 1
370
     0
100
AcDbVertex
100
AcDb2dVertex
 10
519.3287405453411
 20
-289.8694859448087
 30
0.0
  0
VERTEX
  5
76
330
70
100
AcDbEntity
  8
Layer 1
370
     0
100
AcDbVertex
100
AcDb2dVertex
 10
523.6006983797433
 20
-289.8694859448087
 30
0.0
  0
VERTEX
  5
77
330
70
100
AcDbEntity
  8
Layer 1
370
     0
100
AcDbVertex
100
AcDb2dVertex
 10
523.6006983797433
 20
-322.9884011557333
 30
0.0
  0
VERTEX
  5
78
330
70
100
AcDbEntity
  8
Layer 1
370
     0
100
AcDbVertex
100
AcDb2dVertex
 10
520.654796228675
 20
-322.9884011557333
 30
0.0
  0
VERTEX
  5
79
330
70
100
AcDbEntity
  8
Layer 1
370
     0
100
AcDbVertex
100
AcDb2dVertex
 10
520.654796228675
 20
-294.1189597906105
 30
0.0
  0
VERTEX
  5
7A
330
70
100
AcDbEntity
  8
Layer 1
370
     0
100
AcDbVertex
100
AcDb2dVertex
 10
510.0203692640625
 20
-322.9884011557333
 30
0.0
  0
VERTEX
  5
7B
330
70
100
AcDbEntity
  8
Layer 1
370
     0
100
AcDbVertex
100
AcDb2dVertex
 10
507.2093710446061
 20
-322.9884011557333
 30
0.0
  0
VERTEX
  5
7C
330
70
100
AcDbEntity
  8
Layer 1
370
     0
100
AcDbVertex
100
AcDb2dVertex
 10
496.3950721711772
 20
-294.1189597906105
 30
0.0
  0
VERTEX
  5
7D
330
70
100
AcDbEntity
  8
Layer 1
370
     0
100
AcDbVertex
100
AcDb2dVertex
 10
496.3950721711772
 20
-322.9884011557333
 30
0.0
  0
VERTEX
  5
7E
330
70
100
AcDbEntity
  8
Layer 1
370
     0
100
AcDbVertex
100
AcDb2dVertex
 10
493.4042020429042
 20
-322.9884011557333
 30
0.0
  0
SEQEND
  5
7F
330
70
100
AcDbEntity
  8
Layer 1
370
     0
  0
HATCH
  5
80
330
67
100
AcDbEntity
  8
Layer 1
 62
     7
420
 15790320
100
AcDbHatch
 10
0.0
 20
0.0
 30
0.0
210
0.0
220
0.0
230
1.0
  2
SOLID
 70
     1
 71
     0
 91
        1
 92
        1
 93
       13
 72
     1
 10
493.4042020429042
 20
-322.9884011557333
 11
493.4042020429042
 21
-289.8694859448087
 72
     1
 10
493.4042020429042
 20
-289.8694859448087
 11
497.6761598773082
 21
-289.8694859448087
 72
     1
 10
497.6761598773082
 20
-289.8694859448087
 11
508.6033783379389
 21
-319.0312191617595
 72
     1
 10
508.6033783379389
 20
-319.0312191617595
 11
519.3287405453411
 21
-289.8694859448087
 72
     1
 10
519.3287405453411
 20
-289.8694859448087
 11
523.6006983797433
 21
-289.8694859448087
 72
     1
 10
523.6006983797433
 20
-289.8694859448087
 11
523.6006983797433
 21
-322.9884011557333
 72
     1
 10
523.6006983797433
 20
-322.9884011557333
 11
520.654796228675
 21
-322.9884011557333
 72
     1
 10
520.654796228675
 20
-322.9884011557333
 11
520.654796228675
 21
-294.1189597906105
 72
     1
 10
520.654796228675
 20
-294.1189597906105
 11
510.0203692640625
 21
-322.9884011557333
 72
     1
 10
510.0203692640625
 20
-322.9884011557333
 11
507.2093710446061
 21
-322.9884011557333
 72
     1
 10
507.2093710446061
 20
-322.9884011557333
 11
496.3950721711772
 21
-294.1189597906105
 72
     1
 10
496.3950721711772
 20
-294.1189597906105
 11
496.3950721711772
 21
-322.9884011557333
 72
     1
 10
496.3950721711772
 20
-322.9884011557333
 11
493.4042020429042
 21
-322.9884011557333
 97
        0
 75
     2
 76
     1
 98
        0
  0
ENDBLK
  5
6A
330
67
100
AcDbEntity
  8
0
100
AcDbBlockEnd
  0
ENDSEC
  0
SECTION
  2
ENTITIES
  0
INSERT
  5
42
330
1F
100
AcDbEntity
  8
Layer 1
100
AcDbBlockReference
  2
block 2
 10
0.0
 20
0.0
 30
0.0
  0
INSERT
  5
68
330
1F
100
AcDbEntity
  8
Layer 1
100
AcDbBlockReference
  2
block 3
 10
0.0
 20
0.0
 30
0.0
  0
SPLINE
  5
81
330
1F
100
AcDbEntity
  8
Layer 1
370
     0
100
AcDbSpline
210
0.0
220
0.0
230
1.0
 70
    11
 71
     3
 72
    17
 73
    13
 74
     0
 42
0.0000000001
 43
0.0000000001
 12
1.0
 22
0.0
 32
0.0
 13
1.0
 23
0.0
 33
0.0
 40
0.0
 40
0.0
 40
0.0
 40
0.0
 40
1.0
 40
1.0
 40
1.0
 40
2.0
 40
2.0
 40
2.0
 40
3.0
 40
3.0
 40
3.0
 40
4.0
 40
4.0
 40
4.0
 40
4.0
 10
423.075322570252
 20
-320.8576074660104
 30
0.0
 10
423.075322570252
 20
-321.9846297540826
 30
0.0
 10
422.1616904884904
 20
-322.8982618358441
 30
0.0
 10
421.0346682004165
 20
-322.8982618358441
 30
0.0
 10
419.9076459123462
 20
-322.8982618358441
 30
0.0
 10
418.9940138305828
 20
-321.9846297540826
 30
0.0
 10
418.9940138305828
 20
-320.8576074660104
 30
0.0
 10
418.9940138305828
 20
-319.7305851779365
 30
0.0
 10
419.9076459123462
 20
-318.816953096175
 30
0.0
 10
421.0346682004165
 20
-318.816953096175
 30
0.0
 10
422.1616904884904
 20
-318.816953096175
 30
0.0
 10
423.075322570252
 20
-319.7305851779365
 30
0.0
 10
423.075322570252
 20
-320.8576074660104
 30
0.0
  0
HATCH
  5
82
330
1F
100
AcDbEntity
  8
Layer 1
 62
     7
420
 15790320
100
AcDbHatch
 10
0.0
 20
0.0
 30
0.0
210
0.0
220
0.0
230
1.0
  2
SOLID
 70
     1
 71
     0
 91
        1
 92
        1
 93
        1
 72
     4
 94
        3
 73
     0
 74
     1
 95
       17
 96
       13
 40
0.0
 40
0.0
 40
0.0
 40
0.0
 40
1.0
 40
1.0
 40
1.0
 40
2.0
 40
2.0
 40
2.0
 40
3.0
 40
3.0
 40
3.0
 40
4.0
 40
4.0
 40
4.0
 40
4.0
 10
423.075322570252
 20
-320.8576074660104
 10
423.075322570252
 20
-321.9846297540826
 10
422.1616904884904
 20
-322.8982618358441
 10
421.0346682004165
 20
-322.8982618358441
 10
419.9076459123462
 20
-322.8982618358441
 10
418.9940138305828
 20
-321.9846297540826
 10
418.9940138305828
 20
-320.8576074660104
 10
418.9940138305828
 20
-319.7305851779365
 10
419.9076459123462
 20
-318.816953096175
 10
421.0346682004165
 20
-318.816953096175
 10
422.1616904884904
 20
-318.816953096175
 10
423.075322570252
 20
-319.7305851779365
 10
423.075322570252
 20
-320.8576074660104
 97
        0
 97
        0
 75
     2
 76
     1
 98
        0
  0
ENDSEC
  0
SECTION
  2
OBJECTS
  0
DICTIONARY
  5
C
330
0
100
AcDbDictionary
281
     1
  3
ACAD_GROUP
350
D
  3
ACAD_LAYOUT
350
1A
  3
ACAD_MATERIAL
350
3B
  3
ACAD_MLEADERSTYLE
350
84
  3
ACAD_MLINESTYLE
350
17
  3
ACAD_PLOTSETTINGS
350
19
  3
ACAD_PLOTSTYLENAME
350
E
  3
ACAD_TABLESTYLE
350
83
  3
ACAD_VISUALSTYLE
350
2A
  0
SUN
  5
3F
330
29
100
AcDbSun
 90
        1
290
     0
 63
     7
421
 16777215
 40
1.0
291
     1
 91
  2455826
 92
 54000000
292
     0
 70
     2
 71
   256
280
     1
  0
DICTIONARY
  5
D
102
{ACAD_REACTORS
330
C
102
}
330
C
100
AcDbDictionary
281
     1
  0
DICTIONARY
  5
1A
102
{ACAD_REACTORS
330
C
102
}
330
C
100
AcDbDictionary
281
     1
  3
Layout1
350
1E
  3
Layout2
350
26
  3
Model
350
22
  0
DICTIONARY
  5
3B
102
{ACAD_REACTORS
330
C
102
}
330
C
100
AcDbDictionary
281
     1
  3
ByBlock
350
3D
  3
ByLayer
350
3C
  3
Global
350
3E
  0
DICTIONARY
  5
84
102
{ACAD_REACTORS
330
C
102
}
330
C
100
AcDbDictionary
281
     1
  0
DICTIONARY
  5
17
102
{ACAD_REACTORS
330
C
102
}
330
C
100
AcDbDictionary
281
     1
  3
Standard
350
18
  0
DICTIONARY
  5
19
102
{ACAD_REACTORS
330
C
102
}
330
C
100
AcDbDictionary
281
     1
  0
ACDBDICTIONARYWDFLT
  5
E
102
{ACAD_REACTORS
330
C
102
}
330
C
100
AcDbDictionary
281
     1
  3
Normal
350
F
100
AcDbDictionaryWithDefault
340
F
  0
DICTIONARY
  5
83
102
{ACAD_REACTORS
330
C
102
}
330
C
100
AcDbDictionary
281
     1
  0
DICTIONARY
  5
2A
102
{ACAD_REACTORS
330
C
102
}
330
C
100
AcDbDictionary
281
     1
  3
2dWireframe
350
2F
  3
3D Hidden
350
31
  3
3dWireframe
350
30
  3
Basic
350
32
  3
Brighten
350
36
  3
ColorChange
350
3A
  3
Conceptual
350
34
  3
Dim
350
35
  3
Facepattern
350
39
  3
Flat
350
2B
  3
FlatWithEdges
350
2C
  3
Gouraud
350
2D
  3
GouraudWithEdges
350
2E
  3
Linepattern
350
38
  3
Realistic
350
33
  3
Thicken
350
37
  0
LAYOUT
  5
1E
102
{ACAD_REACTORS
330
1A
102
}
330
1A
100
AcDbPlotSettings
  1

  2
none_device
  4

  6

 40
0.0
 41
0.0
 42
0.0
 43
0.0
 44
0.0
 45
0.0
 46
0.0
 47
0.0
 48
0.0
 49
0.0
140
0.0
141
0.0
142
1.0
143
1.0
 70
   688
 72
     0
 73
     0
 74
     5
  7

 75
    16
 76
     0
 77
     2
 78
   300
147
1.0
148
0.0
149
0.0
100
AcDbLayout
  1
Layout1
 70
     1
 71
     1
 10
0.0
 20
0.0
 11
12.0
 21
9.0
 12
0.0
 22
0.0
 32
0.0
 14
1.000000000000000E+20
 24
1.000000000000000E+20
 34
1.000000000000000E+20
 15
-1.000000000000000E+20
 25
-1.000000000000000E+20
 35
-1.000000000000000E+20
146
0.0
 13
0.0
 23
0.0
 33
0.0
 16
1.0
 26
0.0
 36
0.0
 17
0.0
 27
1.0
 37
0.0
 76
     0
330
1B
  0
LAYOUT
  5
26
102
{ACAD_REACTORS
330
1A
102
}
330
1A
100
AcDbPlotSettings
  1

  2
none_device
  4

  6

 40
0.0
 41
0.0
 42
0.0
 43
0.0
 44
0.0
 45
0.0
 46
0.0
 47
0.0
 48
0.0
 49
0.0
140
0.0
141
0.0
142
1.0
143
1.0
 70
   688
 72
     0
 73
     0
 74
     5
  7

 75
    16
 76
     0
 77
     2
 78
   300
147
1.0
148
0.0
149
0.0
100
AcDbLayout
  1
Layout2
 70
     1
 71
     2
 10
0.0
 20
0.0
 11
0.0
 21
0.0
 12
0.0
 22
0.0
 32
0.0
 14
0.0
 24
0.0
 34
0.0
 15
0.0
 25
0.0
 35
0.0
146
0.0
 13
0.0
 23
0.0
 33
0.0
 16
1.0
 26
0.0
 36
0.0
 17
0.0
 27
1.0
 37
0.0
 76
     0
330
23
  0
LAYOUT
  5
22
102
{ACAD_REACTORS
330
1A
102
}
330
1A
100
AcDbPlotSettings
  1

  2
none_device
  4

  6

 40
0.0
 41
0.0
 42
0.0
 43
0.0
 44
0.0
 45
0.0
 46
0.0
 47
0.0
 48
0.0
 49
0.0
140
0.0
141
0.0
142
1.0
143
1.0
 70
  1712
 72
     0
 73
     0
 74
     0
  7

 75
     0
 76
     0
 77
     2
 78
   300
147
1.0
148
0.0
149
0.0
100
AcDbLayout
  1
Model
 70
     1
 71
     0
 10
0.0
 20
0.0
 11
12.0
 21
9.0
 12
0.0
 22
0.0
 32
0.0
 14
1.000000000000000E+20
 24
1.000000000000000E+20
 34
1.000000000000000E+20
 15
-1.000000000000000E+20
 25
-1.000000000000000E+20
 35
-1.000000000000000E+20
146
0.0
 13
0.0
 23
0.0
 33
0.0
 16
1.0
 26
0.0
 36
0.0
 17
0.0
 27
1.0
 37
0.0
 76
     0
330
1F
331
29
  0
MATERIAL
  5
3D
102
{ACAD_REACTORS
330
3B
102
}
330
3B
100
AcDbMaterial
  1
ByBlock
 72
     1
 94
      127
  0
MATERIAL
  5
3C
102
{ACAD_REACTORS
330
3B
102
}
330
3B
100
AcDbMaterial
  1
ByLayer
 72
     1
 94
      127
  0
MATERIAL
  5
3E
102
{ACAD_REACTORS
330
3B
102
}
330
3B
100
AcDbMaterial
  1
Global
 72
     1
 94
      127
  0
MLINESTYLE
  5
18
102
{ACAD_REACTORS
330
17
102
}
330
17
100
AcDbMlineStyle
  2
Standard
 70
     0
  3

 62
   256
 51
90.0
 52
90.0
 71
     2
 49
0.5
 62
   256
  6
BYLAYER
 49
-0.5
 62
   256
  6
BYLAYER
  0
ACDBPLACEHOLDER
  5
F
102
{ACAD_REACTORS
330
E
102
}
330
E
  0
VISUALSTYLE
  5
2F
102
{ACAD_REACTORS
330
2A
102
}
330
2A
100
AcDbVisualStyle
  2
2dWireframe
 70
     4
177
     2
291
     0
 71
     0
176
     1
 72
     2
176
     1
 73
     0
176
     1
 90
        0
176
     1
 40
-0.6
176
     1
 41
-30.0
176
     1
 62
     5
 63
     7
421
 16777215
176
     1
 74
     1
176
     1
 91
        4
176
     1
 64
     7
176
     1
 65
   257
176
     1
 75
     1
176
     1
175
     1
176
     1
 42
1.0
176
     1
 92
        0
176
     1
 66
   257
176
     1
 43
1.0
176
     1
 76
     1
176
     1
 77
     6
176
     1
 78
     2
176
     1
 67
     7
176
     1
 79
     5
176
     1
170
     0
176
     1
171
     0
176
     1
290
     0
176
     1
 93
        1
176
     1
 44
0.0
176
     1
173
     0
176
     1
  0
VISUALSTYLE
  5
31
102
{ACAD_REACTORS
330
2A
102
}
330
2A
100
AcDbVisualStyle
  2
3D Hidden
 70
     6
177
     2
291
     0
 71
     1
176
     1
 72
     2
176
     1
 73
     2
176
     1
 90
        0
176
     1
 40
-0.6
176
     1
 41
-30.0
176
     1
 62
     5
 63
     7
421
 16777215
176
     1
 74
     2
176
     1
 91
        2
176
     1
 64
     7
176
     1
 65
   257
176
     1
 75
     2
176
     1
175
     1
176
     1
 42
40.0
176
     1
 92
        0
176
     1
 66
   257
176
     1
 43
1.0
176
     1
 76
     1
176
     1
 77
     6
176
     1
 78
     2
176
     1
 67
     7
176
     1
 79
     3
176
     1
170
     0
176
     1
171
     0
176
     1
290
     0
176
     1
 93
        1
176
     1
 44
0.0
176
     1
173
     0
176
     1
  0
VISUALSTYLE
  5
30
102
{ACAD_REACTORS
330
2A
102
}
330
2A
100
AcDbVisualStyle
  2
3dWireframe
 70
     5
177
     2
291
     0
 71
     0
176
     1
 72
     2
176
     1
 73
     0
176
     1
 90
        0
176
     1
 40
-0.6
176
     1
 41
-30.0
176
     1
 62
     5
 63
     7
421
 16777215
176
     1
 74
     1
176
     1
 91
        4
176
     1
 64
     7
176
     1
 65
   257
176
     1
 75
     1
176
     1
175
     1
176
     1
 42
1.0
176
     1
 92
        0
176
     1
 66
   257
176
     1
 43
1.0
176
     1
 76
     1
176
     1
 77
     6
176
     1
 78
     2
176
     1
 67
     7
176
     1
 79
     5
176
     1
170
     0
176
     1
171
     0
176
     1
290
     0
176
     1
 93
        1
176
     1
 44
0.0
176
     1
173
     0
176
     1
  0
VISUALSTYLE
  5
32
102
{ACAD_REACTORS
330
2A
102
}
330
2A
100
AcDbVisualStyle
  2
Basic
 70
     7
177
     2
291
     1
 71
     1
176
     1
 72
     0
176
     1
 73
     1
176
     1
 90
        0
176
     1
 40
-0.6
176
     1
 41
-30.0
176
     1
 62
     5
 63
     7
421
 16777215
176
     1
 74
     0
176
     1
 91
        4
176
     1
 64
     7
176
     1
 65
   257
176
     1
 75
     1
176
     1
175
     1
176
     1
 42
1.0
176
     1
 92
        8
176
     1
 66
     7
176
     1
 43
1.0
176
     1
 76
     1
176
     1
 77
     6
176
     1
 78
     2
176
     1
 67
     7
176
     1
 79
     5
176
     1
170
     0
176
     1
171
     0
176
     1
290
     0
176
     1
 93
        1
176
     1
 44
0.0
176
     1
173
     0
176
     1
  0
VISUALSTYLE
  5
36
102
{ACAD_REACTORS
330
2A
102
}
330
2A
100
AcDbVisualStyle
  2
Brighten
 70
    12
177
     2
291
     1
 71
     2
176
     1
 72
     2
176
     1
 73
     0
176
     1
 90
        0
176
     1
 40
-0.6
176
     1
 41
-30.0
176
     1
 62
     5
 63
     7
421
 16777215
176
     1
 74
     1
176
     1
 91
        4
176
     1
 64
     7
176
     1
 65
   257
176
     1
 75
     1
176
     1
175
     1
176
     1
 42
1.0
176
     1
 92
        8
176
     1
 66
     7
176
     1
 43
1.0
176
     1
 76
     1
176
     1
 77
     6
176
     1
 78
     2
176
     1
 67
     7
176
     1
 79
     5
176
     1
170
     0
176
     1
171
     0
176
     1
290
     0
176
     1
 93
        1
176
     1
 44
50.0
176
     1
173
     0
176
     1
  0
VISUALSTYLE
  5
3A
102
{ACAD_REACTORS
330
2A
102
}
330
2A
100
AcDbVisualStyle
  2
ColorChange
 70
    16
177
     2
291
     1
 71
     2
176
     1
 72
     2
176
     1
 73
     3
176
     1
 90
        0
176
     1
 40
-0.6
176
     1
 41
-30.0
176
     1
 62
     5
 63
     8
421
  8421504
176
     1
 74
     1
176
     1
 91
        4
176
     1
 64
     7
176
     1
 65
   257
176
     1
 75
     1
176
     1
175
     1
176
     1
 42
1.0
176
     1
 92
        8
176
     1
 66
     8
424
  8421504
176
     1
 43
1.0
176
     1
 76
     1
176
     1
 77
     6
176
     1
 78
     2
176
     1
 67
     7
176
     1
 79
     5
176
     1
170
     0
176
     1
171
     0
176
     1
290
     0
176
     1
 93
        1
176
     1
 44
0.0
176
     1
173
     0
176
     1
  0
VISUALSTYLE
  5
34
102
{ACAD_REACTORS
330
2A
102
}
330
2A
100
AcDbVisualStyle
  2
Conceptual
 70
     9
177
     2
291
     0
 71
     3
176
     1
 72
     2
176
     1
 73
     0
176
     1
 90
        0
176
     1
 40
-0.6
176
     1
 41
-30.0
176
     1
 62
     5
 63
     7
421
 16777215
176
     1
 74
     2
176
     1
 91
        2
176
     1
 64
     7
176
     1
 65
   257
176
     1
 75
     1
176
     1
175
     1
176
     1
 42
40.0
176
     1
 92
        8
176
     1
 66
     7
176
     1
 43
1.0
176
     1
 76
     1
176
     1
 77
     6
176
     1
 78
     2
176
     1
 67
     7
176
     1
 79
     3
176
     1
170
     0
176
     1
171
     0
176
     1
290
     0
176
     1
 93
        1
176
     1
 44
0.0
176
     1
173
     0
176
     1
  0
VISUALSTYLE
  5
35
102
{ACAD_REACTORS
330
2A
102
}
330
2A
100
AcDbVisualStyle
  2
Dim
 70
    11
177
     2
291
     1
 71
     2
176
     1
 72
     2
176
     1
 73
     0
176
     1
 90
        0
176
     1
 40
-0.6
176
     1
 41
-30.0
176
     1
 62
     5
 63
     7
421
 16777215
176
     1
 74
     1
176
     1
 91
        4
176
     1
 64
     7
176
     1
 65
   257
176
     1
 75
     1
176
     1
175
     1
176
     1
 42
1.0
176
     1
 92
        8
176
     1
 66
     7
176
     1
 43
1.0
176
     1
 76
     1
176
     1
 77
     6
176
     1
 78
     2
176
     1
 67
     7
176
     1
 79
     5
176
     1
170
     0
176
     1
171
     0
176
     1
290
     0
176
     1
 93
        1
176
     1
 44
-50.0
176
     1
173
     0
176
     1
  0
VISUALSTYLE
  5
39
102
{ACAD_REACTORS
330
2A
102
}
330
2A
100
AcDbVisualStyle
  2
Facepattern
 70
    15
177
     2
291
     1
 71
     2
176
     1
 72
     2
176
     1
 73
     0
176
     1
 90
        0
176
     1
 40
-0.6
176
     1
 41
-30.0
176
     1
 62
     5
 63
     7
421
 16777215
176
     1
 74
     1
176
     1
 91
        4
176
     1
 64
     7
176
     1
 65
   257
176
     1
 75
     1
176
     1
175
     1
176
     1
 42
1.0
176
     1
 92
        8
176
     1
 66
     7
176
     1
 43
1.0
176
     1
 76
     1
176
     1
 77
     6
176
     1
 78
     2
176
     1
 67
     7
176
     1
 79
     5
176
     1
170
     0
176
     1
171
     0
176
     1
290
     0
176
     1
 93
        1
176
     1
 44
0.0
176
     1
173
     0
176
     1
  0
VISUALSTYLE
  5
2B
102
{ACAD_REACTORS
330
2A
102
}
330
2A
100
AcDbVisualStyle
  2
Flat
 70
     0
177
     2
291
     1
 71
     2
176
     1
 72
     1
176
     1
 73
     1
176
     1
 90
        2
176
     1
 40
-0.6
176
     1
 41
30.0
176
     1
 62
     5
 63
     7
421
 16777215
176
     1
 74
     0
176
     1
 91
        4
176
     1
 64
     7
176
     1
 65
   257
176
     1
 75
     1
176
     1
175
     1
176
     1
 42
1.0
176
     1
 92
        8
176
     1
 66
     7
176
     1
 43
1.0
176
     1
 76
     1
176
     1
 77
     6
176
     1
 78
     2
176
     1
 67
     7
176
     1
 79
     5
176
     1
170
     0
176
     1
171
     0
176
     1
290
     0
176
     1
 93
       13
176
     1
 44
0.0
176
     1
173
     0
176
     1
  0
VISUALSTYLE
  5
2C
102
{ACAD_REACTORS
330
2A
102
}
330
2A
100
AcDbVisualStyle
  2
FlatWithEdges
 70
     1
177
     2
291
     1
 71
     2
176
     1
 72
     1
176
     1
 73
     1
176
     1
 90
        2
176
     1
 40
-0.6
176
     1
 41
30.0
176
     1
 62
     5
 63
     7
421
 16777215
176
     1
 74
     1
176
     1
 91
        4
176
     1
 64
     7
176
     1
 65
   257
176
     1
 75
     1
176
     1
175
     1
176
     1
 42
1.0
176
     1
 92
        0
176
     1
 66
   257
176
     1
 43
1.0
176
     1
 76
     1
176
     1
 77
     6
176
     1
 78
     2
176
     1
 67
     7
176
     1
 79
     5
176
     1
170
     0
176
     1
171
     0
176
     1
290
     0
176
     1
 93
       13
176
     1
 44
0.0
176
     1
173
     0
176
     1
  0
VISUALSTYLE
  5
2D
102
{ACAD_REACTORS
330
2A
102
}
330
2A
100
AcDbVisualStyle
  2
Gouraud
 70
     2
177
     2
291
     1
 71
     2
176
     1
 72
     2
176
     1
 73
     1
176
     1
 90
        2
176
     1
 40
-0.6
176
     1
 41
30.0
176
     1
 62
     5
 63
     7
421
 16777215
176
     1
 74
     0
176
     1
 91
        4
176
     1
 64
     7
176
     1
 65
   257
176
     1
 75
     1
176
     1
175
     1
176
     1
 42
1.0
176
     1
 92
        0
176
     1
 66
     7
176
     1
 43
1.0
176
     1
 76
     1
176
     1
 77
     6
176
     1
 78
     2
176
     1
 67
     7
176
     1
 79
     5
176
     1
170
     0
176
     1
171
     0
176
     1
290
     0
176
     1
 93
       13
176
     1
 44
0.0
176
     1
173
     0
176
     1
  0
VISUALSTYLE
  5
2E
102
{ACAD_REACTORS
330
2A
102
}
330
2A
100
AcDbVisualStyle
  2
GouraudWithEdges
 70
     3
177
     2
291
     1
 71
     2
176
     1
 72
     2
176
     1
 73
     1
176
     1
 90
        2
176
     1
 40
-0.6
176
     1
 41
30.0
176
     1
 62
     5
 63
     7
421
 16777215
176
     1
 74
     1
176
     1
 91
        4
176
     1
 64
     7
176
     1
 65
   257
176
     1
 75
     1
176
     1
175
     1
176
     1
 42
1.0
176
     1
 92
        0
176
     1
 66
   257
176
     1
 43
1.0
176
     1
 76
     1
176
     1
 77
     6
176
     1
 78
     2
176
     1
 67
     7
176
     1
 79
     5
176
     1
170
     0
176
     1
171
     0
176
     1
290
     0
176
     1
 93
       13
176
     1
 44
0.0
176
     1
173
     0
176
     1
  0
VISUALSTYLE
  5
38
102
{ACAD_REACTORS
330
2A
102
}
330
2A
100
AcDbVisualStyle
  2
Linepattern
 70
    14
177
     2
291
     1
 71
     2
176
     1
 72
     2
176
     1
 73
     0
176
     1
 90
        0
176
     1
 40
-0.6
176
     1
 41
-30.0
176
     1
 62
     5
 63
     7
421
 16777215
176
     1
 74
     1
176
     1
 91
        4
176
     1
 64
     7
176
     1
 65
   257
176
     1
 75
     7
176
     1
175
     7
176
     1
 42
1.0
176
     1
 92
        8
176
     1
 66
     7
176
     1
 43
1.0
176
     1
 76
     1
176
     1
 77
     6
176
     1
 78
     2
176
     1
 67
     7
176
     1
 79
     5
176
     1
170
     0
176
     1
171
     0
176
     1
290
     0
176
     1
 93
        1
176
     1
 44
0.0
176
     1
173
     0
176
     1
  0
VISUALSTYLE
  5
33
102
{ACAD_REACTORS
330
2A
102
}
330
2A
100
AcDbVisualStyle
  2
Realistic
 70
     8
177
     2
291
     0
 71
     2
176
     1
 72
     2
176
     1
 73
     0
176
     1
 90
        0
176
     1
 40
-0.6
176
     1
 41
-30.0
176
     1
 62
     5
 63
     7
421
 16777215
176
     1
 74
     1
176
     1
 91
        0
176
     1
 64
     7
176
     1
 65
   257
176
     1
 75
     1
176
     1
175
     1
176
     1
 42
1.0
176
     1
 92
        8
176
     1
 66
     8
424
  7895160
176
     1
 43
1.0
176
     1
 76
     1
176
     1
 77
     6
176
     1
 78
     2
176
     1
 67
     7
176
     1
 79
     5
176
     1
170
     0
176
     1
171
     0
176
     1
290
     0
176
     1
 93
       13
176
     1
 44
0.0
176
     1
173
     0
176
     1
  0
VISUALSTYLE
  5
37
102
{ACAD_REACTORS
330
2A
102
}
330
2A
100
AcDbVisualStyle
  2
Thicken
 70
    13
177
     2
291
     1
 71
     2
176
     1
 72
     2
176
     1
 73
     0
176
     1
 90
        0
176
     1
 40
-0.6
176
     1
 41
-30.0
176
     1
 62
     5
 63
     7
421
 16777215
176
     1
 74
     1
176
     1
 91
        4
176
     1
 64
     7
176
     1
 65
   257
176
     1
 75
     1
176
     1
175
     1
176
     1
 42
1.0
176
     1
 92
       12
176
     1
 66
     7
176
     1
 43
1.0
176
     1
 76
     1
176
     1
 77
     6
176
     1
 78
     2
176
     1
 67
     7
176
     1
 79
     5
176
     1
170
     0
176
     1
171
     0
176
     1
290
     0
176
     1
 93
        1
176
     1
 44
0.0
176
     1
173
     0
176
     1
  0
ENDSEC
  0
EOF
